Cifra Club

As Melhores Putas do Alabama

Matanza

Cifra: Principal (violão e guitarra)
Selo Cifra Club: esta cifra foi revisada para atender aos critérios oficiais da nossa Equipe de Qualidade.
tom: G
INTRO:
E|------------------------------------------------------|
B|------------------------------------------------------|
g|---0-0-0--0--4--2--0----------------------------------|
d|-------------------------2--2-2-2--0--2-0-------------|
a|-------------------------------------------2--0-------|
E|-------------------------------------------------3----|

E|-------------------------|
B|-------------------------|
g|-------------------------|
d|--------0h2-0-2-0--------| RIFF 1
a|-------------------2-0---|
E|----------------------3--|


E|-----------------------|
B|-----------------------|
g|-----2h4-0-2-0-----0---|
d|---------------2-0-----|
a|-----------------------|
E|-----------------------|

G                       E
As melhores putas do Alabama
       G                 E + RIFF 1
E uma boa garrafa de whiskey
G                       E
Pra quem passou a vida toda em cana
       G                        E  A-B-C
MonteGringo nunca mais eu voltarei

C                 G
Aprendi a jogar pôquer bem
     C                         G      F# F
Aprendi a não perder mais de ninguém
E           C
É um lugar ruim
          D                 G    D
Mas é pra cá que todo mundo vem

    G                          E
Aprendi tudo que sei com NightRider
     G                       E + RIFF 1
O maior apostador que já se viu
G                            E
Preso por assalto em Santo Antonio
     G                   E  A-B-C
E de lá esse nunca mais saiu

C            G
Hoje vivo afogado em cassinos
      C                       G   F# F
E no resto dos meus dias jogarei
E                 C
Pelas putas do Alabama
         D          G     D
E a garrafa de whiskey

SOLO:

E|----------------------------|-------------------------|
B|-3-0------------------------|-3-0-------------------3-|
g|-----2-0-000-0-2-0----------|-----2-0-000-0-2-0-2h4---|
d|-------------------2-0-0h2-2|-------------------------|
a|----------------------------|-------------------------|
E|----------------------------|-------------------------|

E|--------3-333-3----------------------------------------------------------|
B|-3-5-3----------3-333-3--------------------------------------------------|
g|------------------------4-444-4-0-000-0---------0---0h2-0----------------|
d|----------------------------------------2-222-2----2--------2-2--0-0-----|
a|-----------------------------------------------------------------------3-|
E|-------------------------------------------------------------------------|

C            G
Hoje vivo afogado em cassinos
      C                       G   F# F
E no resto dos meus dias jogarei
E                 C
Pelas putas do Alabama
         D          G    D
E a garrafa de whiskey

SOLO FINAL:
E|------------------------------------------------------------|
B|------------------------------------------------------------|
g|----0-----------------------2h4-0-2-0-----------------------|
d|--0----0h2-0-2-0----------------------2-0-2/5-5-------------|
a|-----------------2-0----------------------------------------|
E|----------------------3-------------------------------------|

FINAL:
           F        G          F      G
E|-----------------------------------|-----------------|
B|-----------------------------------|-----------------|
g|-----------7--7-7-7------------7~--|-2h4-0-2-0-------|
d|-3--3-3-3--7--7-7-7--3--3-3-3--7~--|-----------2p0~--|
a|-3--3-3-3--5--5-5-5--3--3-3-3--5~--|-----------------|
E|-1--1-1-1------------1--1-1-1------|-----------------|
Outros vídeos desta música
    74.715 exibições
      • ½ Tom
      • A
      • Bb
      • B
      • C
      • Db
      • D
      • Eb
      • E
      • F
      • F#
      • G
      • Ab
    • Adicionar à lista

    Afinação da cifra

    Afinador online

      0 comentários

      Ver todos os comentários

      Conseguiu tocar?

      12Tocaram0Ainda não

      Grave um vídeo tocando As Melhores Putas do Alabama e nos envie!

      Toque também

      1. Imagem do artista Raul SeixasCowboy Fora da Lei Raul Seixas
      2. Imagem do artista RaimundosMulher de Fases Raimundos
      3. Imagem do artista CPM 22Um Minuto Para o Fim do Mundo CPM 22
      4. Imagem do artista Ultraje a RigorCiúme Ultraje a Rigor

      Entre para o Cifra Club PRO

      Tenha acesso a benefícios exclusivos no App e no Site

      • Chega de anúncios

      • Badges exclusivas

      • Mais recursos no app do Afinador

      • Atendimento Prioritário

      • Aumente seu limite de lista

      • Ajude a produzir mais conteúdo

      Cifra Club Pro

      Aproveite o Cifra Club com benefícios exclusivos e sem anúncios
      Cifra Club Pro
      Aproveite o Cifra Club com benefícios exclusivos e sem anúncios
      Ops (: Contenido disponible sólo en portugués.
      OK