Cifra Club

Aprenda

Cheia de Marra

MC Livinho

Cifra: Principal (violão e guitarra)
Tom: F#
[Intro]

     Abm                   E
E|--4---7-6-4--7-6-4--3--------|
B|-----------------------4-----|
G|-----------------------------|
D|-----------------------------|
A|-----------------------------|
E|-----------------------------|

     Abm                   E
E|--4---7-6-4--7-6-4--6--------|
B|-----------------------------|
G|-----------------------------|
D|-----------------------------|
A|-----------------------------|
E|-----------------------------|

     Abm                   E
E|--4---7-6-4--7-6-4--3--------|
B|-----------------------4-----|
G|-----------------------------|
D|-----------------------------|
A|-----------------------------|
E|-----------------------------|

     Abm                   E
E|--4---7-6-4--7-6-4--6--------|
B|-----------------------------|
G|-----------------------------|
D|-----------------------------|
A|-----------------------------|
E|-----------------------------|

    Abm                       E
E|-4-4-4-4-7--7-6--3-3-3-6--4--|
B|-----------------------------|
G|-----------------------------|
D|-----------------------------|
A|-----------------------------|
E|-----------------------------|

 Abm                      E
Tá cheia de marra essa menina
 Abm                   E
É só porque não me provou
Abm                        E
Ela é formada, dá aula, ensina
Abm                           E
Só que hoje eu sou teu professor

Abm                           E
Diz que é prendada, que só relaxa
  Abm                      E
Quando acende e faz fumaça
Abm                          E
Eu tô sedento, ela é sedenta
Abm           E
Então demorou
Abm                   E
Vamo ver quem aguenta

Abm                      E
Tentou me enganar, á, á, á
Abm              E
Não quer mais parar
Abm                  E
Tu pagou pra ver, ê, ê
Abm                E
Que dó de você, ê, ê

Abm            E
Tentou me enganar
Abm                        E
Não quer mais parar, á, á, á
Abm                  E
Tu pagou pra ver, ê, ê
Abm                E
Que dó de você, ê, ê

     Abm                   E
E|--4---7-6-4--7-6-4--3--------|
B|-----------------------4-----|
G|-----------------------------|
D|-----------------------------|
A|-----------------------------|
E|-----------------------------|

     Abm                   E
E|--4---7-6-4--7-6-4--6--------|
B|-----------------------------|
G|-----------------------------|
D|-----------------------------|
A|-----------------------------|
E|-----------------------------|

     Abm                   E
E|--4---7-6-4--7-6-4--3--------|
B|-----------------------4-----|
G|-----------------------------|
D|-----------------------------|
A|-----------------------------|
E|-----------------------------|

     Abm                   E
E|--4---7-6-4--7-6-4--6--------|
B|-----------------------------|
G|-----------------------------|
D|-----------------------------|
A|-----------------------------|
E|-----------------------------|

    Abm                       E
E|-4-4-4-4-7--7-6--3-3-3-6--4--|
B|-----------------------------|
G|-----------------------------|
D|-----------------------------|
A|-----------------------------|
E|-----------------------------|

 Abm                      E
Tá cheia de marra essa menina
 Abm                   E
É só porque não me provou
Abm                        E
Ela é formada, dá aula, ensina
Abm                           E
Só que hoje eu sou teu professor

Abm                           E
Diz que é prendada, que só relaxa
  Abm                      E
Quando acende e faz fumaça
Abm                          E
Eu tô sedento, ela é sedenta
Abm           E
Então demorou
Abm                   E
Vamo ver quem aguenta

Abm                      E
Tentou me enganar, á, á, á
Abm              E
Não quer mais parar
Abm                  E
Tu pagou pra ver, ê, ê
Abm                E
Que dó de você, ê, ê

Abm            E
Tentou me enganar
Abm                        E
Não quer mais parar, á, á, á
Abm                  E
Tu pagou pra ver, ê, ê
Abm                E
Que dó de você, ê, ê
Colaboração e revisão:
  • Getúlio Vasconcelos
  • Rafael Maia
  • Pedro Braga
114.973 exibições
    • ½ Tom
    • A
    • Bb
    • B
    • C
    • Db
    • D
    • Eb
    • E
    • F
    • F#
    • G
    • Ab
  • Adicionar à lista

    0 comentários

    Mostrar mais comentários

    Conseguiu tocar?

    14 Tocaram 9 Ainda não

    Grave um vídeo tocando Cheia de Marra e mande pra gente!

    00:00 / 00:00
    outros vídeos desta música
    repetir qualidade Automático
    Outros vídeos desta música
    00:00 / 00:00
    Automático

    Cifra Club Pro

    Aproveite o Cifra Club com benefícios exclusivos e sem anúncios
    Cifra Club Pro
    Aproveite o Cifra Club com benefícios exclusivos e sem anúncios
    OK