Cifra Club

Tudo De Bom

MC Livinho

Cifra: Principal (violão e guitarra)
tom: C#m
[Intro]

E|-------------------------------------------5--------|
B|-5-5-5-5-4------5-5-5-5-4------5-5-5-5-4-----7--5---|
G|-----------6-6------------6-6------------6----------|
D|----------------------------------------------------|
A|----------------------------------------------------|
E|----------------------------------------------------|

E|----------------------------------------------------|
B|-5-5-5-5-4------5-5-5-5-4------5-5-5-5-4------------|
G|-----------6-6------------6-6------------6-6--------|
D|----------------------------------------------------|
A|----------------------------------------------------|
E|----------------------------------------------------|

E|---------------5------------------------------------|
B|-5-5-5-5-4-------7-5--------------------------------|
G|-----------6-6--------------------------------------|
D|----------------------------------------------------|
A|----------------------------------------------------|
E|----------------------------------------------------|

E|-------------------------------------------5--------|
B|-5-5-5-5-4------5-5-5-5-4------5-5-5-5-4-----7-5-4--|
G|-----------6-6------------6-6------------6----------|
D|----------------------------------------------------|
A|----------------------------------------------------|
E|----------------------------------------------------|

E|----------------------------------------------------|
B|---5-5-5----5-5-5-----------------------------------|
G|----------------------------------------------------|
D|-6-------6---------6-6-6-7-9-7-6-4-2----------------|
A|-------------------------------------6-4------------|
E|----------------------------------------------------|

           C#m
Foi lá no baile, que ela dançou
          A          G#
E como sempre todo mundo olhou
           C#m
Foi lá no baile, que aconteceu
      A          G#
Ela parou e me chamou, chamou, chamou eu


Ôh novinha, ôh novinha
              C#m      A    G#
Cê é tudo de bom om om om om
      C#m
Tua boquinha, tua boquinha
                A        G#
Me marcou com batom om om om om

C#m                    C#m
Dá uma lapada no chão, da uma lapada no chão
                  A   G#
Dá uma lapada no chão
                  A   G#
Dá uma lapada no chão

C#m
Livinho que vai mandar, e é pra tu obedecer
A                   G#
bota a mãozinha no chão e começa a remexer
A                   G#
bota a mãozinha no chão e começa a remexer

Ôh novinha, ôh novinha
             C#m      A  G#
Cê é tudo de bom om om om om
C#m
Tua boquinha, tua boquinha
                A       G#
Me marcou com batom om om om om
E|-------------------------------------------5--------|
B|-5-5-5-5-4------5-5-5-5-4------5-5-5-5-4-----7--5---|
G|-----------6-6------------6-6------------6----------|
D|----------------------------------------------------|
A|----------------------------------------------------|
E|----------------------------------------------------|

E|----------------------------------------------------|
B|-5-5-5-5-4------5-5-5-5-4------5-5-5-5-4------------|
G|-----------6-6------------6-6------------6-6--------|
D|----------------------------------------------------|
A|----------------------------------------------------|
E|----------------------------------------------------|

E|---------------5------------------------------------|
B|-5-5-5-5-4-------7-5--------------------------------|
G|-----------6-6--------------------------------------|
D|----------------------------------------------------|
A|----------------------------------------------------|
E|----------------------------------------------------|

E|-------------------------------------------5--------|
B|-5-5-5-5-4------5-5-5-5-4------5-5-5-5-4-----7-5-4--|
G|-----------6-6------------6-6------------6----------|
D|----------------------------------------------------|
A|----------------------------------------------------|
E|----------------------------------------------------|

E|----------------------------------------------------|
B|---5-5-5----5-5-5-----------------------------------|
G|----------------------------------------------------|
D|-6-------6---------6-6-6-7-9-7-6-4-2----------------|
A|-------------------------------------6-4------------|
E|----------------------------------------------------|

           C#m
Foi lá no baile, que ela dançou
          A          G#
E como sempre todo mundo olhou
           C#m
Foi lá no baile, que aconteceu
      A          G#
Ela parou e me chamou, chamou, chamou eu


Ôh novinha, ôh novinha
              C#m      A    G#
Cê é tudo de bom om om om om
      C#m
Tua boquinha, tua boquinha
                A        G#
Me marcou com batom om om om om

C#m                    C#m
Dá uma lapada no chão, da uma lapada no chão
                  A     G#
Dá uma lapada no chão, ahm ahm ahm ahm ahm
                  A     G#
Dá uma lapada no chão, ahm ahm ahm ahm ahm

C#m
Livinho que vai mandar, e é pra tu obedecer
A                   G#
bota a mãozinha no chão e começa a remexer
A                   G#
bota a mãozinha no chão e começa a remexer

Ôh novinha, ôh novinha
             C#m      A  G#
Cê é tudo de bom om om om om
C#m
Tua boquinha, tua boquinha
                A       G#
Me marcou com batom om om om om
00:00 / 00:00
Outros vídeos desta música
Repetir
Outros vídeos desta música
Compositor não encontrado.
100.469 exibições
    • ½ Tom
    • Am
    • Bbm
    • Bm
    • Cm
    • C#m
    • Dm
    • Ebm
    • Em
    • Fm
    • F#m
    • Gm
    • G#m
  • Adicionar à lista

    0 comentários

    Ver todos os comentários

    Entre para oCifra Club PRO

    Tenha acesso a benefícios exclusivos no App e no Site

    • Chega de anúncios

    • Prioridade de compra em lançamentos

    • Mais recursos no app do Afinador

    • Atendimento Prioritário

    • Descontos nos produtos Cifra Club

    • Ajude a produzir mais conteúdo

    00:00 / 00:00

    Cifra Club Pro

    Aproveite o Cifra Club com benefícios exclusivos e sem anúncios
    Cifra Club Pro
    Aproveite o Cifra Club com benefícios exclusivos e sem anúncios
    OK