Notificações Amigos pendentes

      Metallica

      Mama Said

      280.144 exibições
      Tom: G
      (versão 1)
      
      (esse acompanhamento se repete por toda a música, *** marcam o começo do acompanhamento)
      
      
      E|-1--1--0--1--3--3--1--1--0-----------------------------------|
      B|-3--3--3--3--3--3--3--3--0--1--1--1----1--0h1--1-------------|
      G|-2--2--2--2--2--2--2--2--0--0--0--2----2--2----2-------------|
      D|-0--0--0--0--0--0--0--0--0--2--2--2----2--2----2-------------|
      A|----------------------------3--3--0----0--0----0-------------|
      E|-------------------------------------------------------------|2x
      
      
      Dm
      Mama, she has taught me well
      C                  Am
      Told me when I was young
      Dm
      "Son, your life´s an open book
            C                Am
      Don´t close ´fore it´s done"
      Dm
      "The brightest flame burns quickest"
             C                Am
      That´s what I heard her say
      Dm
      A son´s heart sowed to mother
          C              Am
      But I must find my way
      
      Dm  C  Am    G
      Let my heart go
      Dm  C    Am  G
      Let your son grow
            Dm  C  Am    G
      Mama, let my heart go
         Dm  C    Bb    G  Am
      Or Let this heart be still
               ***
      Yeah, still
      
      (acompanhamento)
      
      Dm
      Rebel, my new last name
           C           Am
      Wild blood in my veins
      Dm
      They bring strings around my neck
          C                Am
      The mark that still remains
      Dm
      Left home at an early age
         C                Am
      Of what I heard was wrong
      Dm
      I never asked forgiveness
          C              Am
      But what I said is done
      
      Dm  C  Am    G
      Let my heart go
      Dm  C    Am  G
      Let your son grow
            Dm  C  Am    G
      Mama, let my heart go
      Dm  C    Bb    G  Am
      Let this heart be still
      
      Dm       G
      Never I ask of you
          C       F
      But never I gave
              Dm            G
      But you gave me your emptiness
               C          F
      And I´ll take to my grave
      
      Dm       G
      Never I ask of you
          C       F
      But never I gave
              Dm            G
      But you gave me your emptiness
                C          F
      That I´ll take to my grave
         Dm  C    Bb    G  Am
      So let this heart be still
      
      Dm
      Mama, now I´m coming home
              C                Am
      I´m not all you wished of me
      Dm
      A mother´s love for her son
       C              Am
      Spoken, help me be
      Dm
      I took your love for granted
            C                Am
      Not a thing you said to me
      Dm
      I need your arms to welcome me
            C                  Am
      But a cold stone´s all I see
      
                   G
      Let my heart go
      Dm  C    Am  G
      Let your son grow
            Dm  C  Am    G
      Mama, let my heart go
         Dm  C    Bb    G  Am
      Or Let this heart be still
      Dm  C  Am    G
      Let my heart go
            Dm  C  Am    G
      Mama, let my heart go
                Dm  C  Am    G
      You never let my heart go
         Dm  C    Bb    G  Am
      So let this heart be still
      
      ( Dm  G  C  F )
      
      Dm       G
      Never I ask of you
          C       F
      But never I gave
              Dm            G
      But you gave me your emptiness
               C          F
      And I´ll take to my grave
      
      Dm       G
      Never I ask of you
          C       F
      But never I gave
              Dm            G
      But you gave me your emptiness
                C          F
      That I´ll take to my grave
         Dm  C    Bb    G  Am
      So let this heart be still
      
      (com 2 violões é possível emprovisar algumas notas na pentatônica (na 2ª e na 3ª cordas) para se
       assemelhar mais com a música original, que tem a guitarra)
      
      
      E|--------------------------------------
      B|--8/13-13-13~\8--8/13-13~~13-11\8-13~-
      G|--------------------------------------
      D|--------------------------------------
      A|--------------------------------------
      E|--------------------------------------
      
      
      (dica: use bastante distorção (~~) nas cordas para dar o efeito da guitarra)
      
      (versão 2)
      
      x  ......  muffled string
      ^  ...... hammer ons , pull offs
      'F'  ...... Bend full step
      FR ...... Bend full step and then release
      PBR ..... Pre bend  and release
      /   ..... slide up
      \   ..... slide down
      (12) .... `ghost' note = note which sounds from previous measure
       .
      15 .... the point over the note means :"play it short - staccato"
      
      (mama said is based on strumming of chords so play this with slight variation)
      
      (rhythm fig.1)
      
                 Dm                          Dsus4
      E|-1--------1---0---1-----------3----3---1---1---1-------1-----------|
      B|-3------------3---3-----------3----3---3---3---3-------3-----------|
      G|-2------------2-----------2---2----2---2---2---2-------------------|
      D|-0--------------------0--------------------------------------------|
      A|---------------------------------------------------0---------------|
      E|-------------------------------------------------------------------|
      
      
                C                 Am              Asus2 Am
      E|-------------------------------------0---0---x---x-----------------|
      B|-1----1---1^3--x---1----1---1---1----0---1---x---x-----------------|
      G|-0----0---0----x---2----2---2---2----2---2---x---x-----------------|
      D|-2----2---2----x---2----2---2---2----2---2-------------------------|
      A|-3----3---3--------0-----------------------------------------------|
      E|-------------------------------------------------------------------|
      
      
      E|-1----1---1---0---1-----------3----3---1---1---1-------------------|
      B|-3------------3---3-----------3----3---3---3---3-------------------|
      G|-2------------2-----------2---2----2---2---2---2-------------------|
      D|-0--------------------0--------------------------------------------|
      A|----------------------------------------------------0--------------|
      E|-------------------------------------------------------------------|
      
                     H
      
      E|--------------------0--------0---0----0---0------------------------|
      B|--1----1---1^3--x---1--------1---1----1---3------------------------|
      G|--0----0---0----x---2--------2---2----2---2-------0----------------|
      D|--2----2---2----x---2----------------------------------------------|
      A|--3----3---3--------0----------------------------------------------|
      E|-------------------------------------------------------------------|
      
      
      (rhythm fill 1)
      
      *Eb|--------------------0--------0---0---------0---0-------------------|*
      *Bb|--1----1---1^3--x---1--------3---3---------3---3-------------------|*
      *Gb|--0----0---0----x---2--------2---2---------2---2-------------------|*
      *Db|--2----2---2----x---2--------2---2---------2---2-------------------|*
      *Ab|--3----3---3--------0----------------------------------------------|*
      *Eb|-------------------------------------------------------------------|*
      
      
      (notice - one line  of the verse is one  line of the rhythm fig.1)
      (verse 1) (w/rhythm fig.1)
      
      Mama, she's taught me well
      told me when I was young
      Son your life's  an open book   don't
      (w/substitute rhythm fill 1)
      lose it fore it's done          The
      (w/resume Rhythm fig.1)
      brightest flame burns quickest    That's
      what I heard her say                  a
      son's heart's owed to mother,         but
      C                Am            (both open chords strike only once)
      I must find my way
      
      (chorus)
        (guitar 2)                      (*hold bend)
      
      E|--------------------|----------------------------------------|
      B|--------------------|-15-------15-----------15-----15--------|
      G|--------------------|-14F|---12-14PBR-12-14FR--14FR-14-12-----|
      D|--------------------|----------------------------------------|
      A|--------------------|----------------------------------------|
      E|--------------------|----------------------------------------|
      
      
      (guitar 1) (rhythm.fig2)
      
                Dm   Cadd9    Am      G
      E|-1------3------0----|--3---3-3--3----3-3----3-3----3--3-3----|
      B|-3------3------1----|--3---3-3--3----3-3----3-3----3--3-3----|
      G|-2------0------2----|--0---0-0--0----0-0----0-0----0--0-0----|
      D|-0------2------2----|--0---0-0--0----0-0----0-0----0--0-0----|
      A|--------3------0----|--2---2-2--2----2-2----2-2----2--2-2----|
      E|--------------------|--3---3-3--3----3-3----3-3----3--3-3----|
      
          Let    my    heart   go___________
      
        (guitar 2)                      (*hold bend)
      
      E|--------------------|----------------------------------------|
      B|--------------------|-15-------15-----------15-----15--------|
      G|--------------------|-14F|---12-14PBR-12-14FR--14FR-14-12-----|
      D|--------------------|----------------------------------------|
      A|--------------------|----------------------------------------|
      E|--------------------|----------------------------------------|
      
      
      (guitar 1)
      
              Dm   Cadd9    Am      G
      E|-1------3------0----|--3---3-3--3----3-3----3-3----3--3-3----|
      B|-3------3------1----|--3---3-3--3----3-3----3-3----3--3-3----|
      G|-2------0------2----|--0---0-0--0----0-0----0-0----0--0-0----|
      D|-0------2------2----|--0---0-0--0----0-0----0-0----0--0-0----|
      A|--------3------0----|--2---2-2--2----2-2----2-2----2--2-2----|
      E|--------------------|--3---3-3--3----3-3----3-3----3--3-3----|
      
          Let    your   son     grow_______                    Mama
      
      (guitar 2)                      (*hold bend)
      
      E|--------------------|----------------------------------------|
      B|--------------------|-15-------15-----------15-15-15---------|
      G|--------------------|-14F|---12-14PBR-12-14FR--------14-12----|
      D|--------------------|----------------------------------------|
      A|--------------------|----------------------------------------|
      E|--------------------|----------------------------------------|
      
      
      (guitar 1)
      
                Dm   Cadd9    Am      G
      E|-1------3------0----|--3---3-3--3----3-3----3-3----3--3-3----|
      B|-3------3------1----|--3---3-3--3----3-3----3-3----3--3-3----|
      G|-2------0------2----|--0---0-0--0----0-0----0-0----0--0-0----|
      D|-0------2------2----|--0---0-0--0----0-0----0-0----0--0-0----|
      A|--------3------0----|--2---2-2--2----2-2----2-2----2--2-2----|
      E|--------------------|--3---3-3--3----3-3----3-3----3--3-3----|
      
          let    my     heart   go_________                     or
      
      
                Dm   Cadd9  Bb  G     Am  (hold chord)
      E|-1-----3---------3--|--0-------------------------------------|
      B|-3-----3---3-----3--|--1-------------------------------------|
      G|-2-----0---3-----0--|--2-------------------------------------|
      D|-0-----2---3--------|--2-------------------------------------|
      A|-------3---1-----2--|--0-------------------------------------|
      E|-----------------3--|----------------------------------------|
      
          Let  this heart be    still________        yeah still________
      
      (guitar 1) (w/rhythm fig.1)
      (guitar 2) (w/wah effect)                               P  P
      
      E|----------------------------|-------------------13^12^10-----|
      B|----------------------------|----------------10----------10--|
      G|----------------------------|--------------------------------|
      D|----------------------------|--------------------------------|
      A|----------------------------|--------------------------------|
      E|----------------------------|--------------------------------|
      
            H  P                                           P
      
      E|-10^12^10-------------------|-----------------5--------------|
      B|----------------------------|--------------------6^5---------|
      G|----------------------------|--------------7----------7------|
      D|----------------------------|--------------------------------|
      A|----------------------------|--------------------------------|
      E|----------------------------|--------------------------------|
      
      
      (verse 2)
      (guitar 1) (w/rhythm fig.1)
      (guitar 2)
             H
      
      E|---5------------------------|------------------------17------17----|
      B|---5^6----------------------|--------------------------------------|
      G|---7------------------------|--------------------------19PBR---19PBR
      D|----------------------------|----------------------19------19------|
      A|----------------------------|--------------------------------------|
      E|----------------------------|--------------------------------------|
      
           Rebel my  new last name    wild blood in my veins___
                                                                      .  .
      
      E|----------------------------|-----------------------17-------------|
      B|----------------------------|----------------------------20--17-17-|
      G|-(19)-----------------------|---------------------19---19--19------|
      D|----------------------------|--------------------------------------|
      A|----------------------------|--------------------------------------|
      E|----------------------------|--------------------------------------|
      
         Apron string around my neck the mark that still remains           I
             H
      
      E|----------------------------|--------------------------17---------|
      B|--17^18---------------------|-------------------------------15FB|--|
      G|--17^19---------------------|-------------------------------------|
      D|----------------------------|-------------------------------------|
      A|----------------------------|-------------------------------------|
      E|----------------------------|-------------------------------------|
      
          left home at an early age  of what I   heard was wrong______
      
           (* use wah pedal up and down Gtr1)
      
      E|----------------------------|--0------------------0---------------|
      B|-15-------------------------|--1------------------1---------------|
      G|-14-------------------------|--0------------------2---------------|
      D|----------------------------|--2------------------2---------------|
      A|----------------------------|--3------------------0---------------|
      E|----------------------------|-------------------------------------|
      
          never asked forgivness  but   what I said is     done________
      
      (chorus)
      (guitar 2)  (rhythm.fig2A)
                                                 * hold bend
      
      E|--------------------|----------------------------------------|
      B|--------------------|-15-------15-----------15-----15--------|
      G|--------------------|-14F|---12-14PBR-12-14FR--14FR-14-12-----|
      D|--------------------|----------------------------------------|
      A|--------------------|----------------------------------------|
      E|--------------------|----------------------------------------|
      
      
      (guitar 1) (rhythm.fig2)
      
                Dm   Cadd9    Am      G
      E|-1------3------0----|--3---3-3--3----3-3----3-3----3--3-3----|
      B|-3------3------1----|--3---3-3--3----3-3----3-3----3--3-3----|
      G|-2------0------2----|--0---0-0--0----0-0----0-0----0--0-0----|
      D|-0------2------2----|--0---0-0--0----0-0----0-0----0--0-0----|
      A|--------3------0----|--2---2-2--2----2-2----2-2----2--2-2----|
      E|--------------------|--3---3-3--3----3-3----3-3----3--3-3----|
      
          Let    my    heart   go___________
      
      
      (guitar 2)                                 * hold bend Eb|--------------------|----------------------------------------|
      B|--------------------|-15-------15-----------15-15-15---------|
      G|--------------------|-14F|---12-14PBR-12-14FR--------14--12---|
      D|--------------------|----------------------------------------|
      A|--------------------|----------------------------------------|
      E|--------------------|----------------------------------------|
      
      
      (guitar 1)
      
                Dm   Cadd9    Am      G
      E|-1------3------0----|--3---3-3--3----3-3----3-3----3--3-3----|
      B|-3------3------1----|--3---3-3--3----3-3----3-3----3--3-3----|
      G|-2------0------2----|--0---0-0--0----0-0----0-0----0--0-0----|
      D|-0------2------2----|--0---0-0--0----0-0----0-0----0--0-0----|
      A|--------3------0----|--2---2-2--2----2-2----2-2----2--2-2----|
      E|--------------------|--3---3-3--3----3-3----3-3----3--3-3----|
      
          Let    your   son     grow_______                    Mama
      
      (guitar 2)
      
      E|--------------------|----------------------------------------|
      B|--------------------|-15----15------15-----------15----------|
      G|--------------------|-14F|---14F|--12----14PBR--12----14PBR-12-|
      D|--------------------|----------------------------------------|
      A|--------------------|----------------------------------------|
      E|--------------------|----------------------------------------|
      
      
      (guitar 1)
      
                Dm   Cadd9    Am      G
      E|-1------3------0----|--3---3-3--3----3-3----3-3----3--3-3----|
      B|-3------3------1----|--3---3-3--3----3-3----3-3----3--3-3----|
      G|-2------0------2----|--0---0-0--0----0-0----0-0----0--0-0----|
      D|-0------2------2----|--0---0-0--0----0-0----0-0----0--0-0----|
      A|--------3------0----|--2---2-2--2----2-2----2-2----2--2-2----|
      E|--------------------|--3---3-3--3----3-3----3-3----3--3-3----|
      
          let    my     heart   go_________                     or
      
      
                Dm   Cadd9  Bb  G     Am             Asus2    Asus4
      E|-1-----3---------3--|--0------0-0----0-0---0---0-0-0----0----|
      B|-3-----3---3-----3--|--1------1-1----0-0---0---3-3-3----3----|
      G|-2-----0---3-----0--|--2------2-2----2-2---2---2-2-2----2----|
      D|-0-----2---3--------|--2------2-2----2-2---2---2-2-2----2----|
      A|-------3---1-----2--|--0------0-0----0-0---0---0-0-0----0----|
      E|-----------------3--|----------------------------------------|
      
          Let  this heart be    still________
      
      (brigde)
      
      (guitar 1)
      
                 Dm        G                  Cadd9       F
      E|-1--1-1-1--3---3-3---3--3-3-|-3---3-3-3---1-----1-1---1-1-1-------|
      Bb|*3--3-3-3--3---3-3---3--3-3-|-3---3-3-3---1-----1-1---1-1-1-------|
      G|-2--2-2-2--0---0-0---0--0-0-|-0---0-0-0---2-----2-2---2-2-2-------|
      D|-0--0-0-0--0---0-0---0--0-0-|-2---2-2-2---3-----3-3---3-3-3-------|
      Ab|*----------2---2-2---2--2-2-|-3---3-3-3---3-----3-3---3-3-3-------|
      E|-----------3---3-3---3--3-3-|-------------1-----1-1---1-1-1-------|
      
        Never I   ask  of you   but   never I      gave           But you
      
      (guitar 2)               H
      
      E|------1------------0--------|-------0-----------------------------|
      Bb|*-------3F-3---------3------|---------1^3-------------------------|
      G|----2------------0-------0--|-------------------------------------|
      D|-0--------------------------|-----2-------------------------------|
      Ab|*--------------2------------|-3-----------------------------------|
      E|----------------------------|-------------1-----------------------|
      
      
                 Dm        G                  Cadd9        F
      E|-1--1-1-1--3---3-3---3--3-3-|-3---3-3-3----1------1-1-1-1-1-------|
      B|-3--3-3-3--3---3-3---3--3-3-|-3---3-3-3----1------1-1-1-1-1------*|
      G|-2--2-2-2--0---0-0---0--0-0-|-0---0-0-0----2------2-2-2-2-2-------|
      D|-0--0-0-0--0---0-0---0--0-0-|-2---2-2-2----3------3-3-3-3-3-------|
      A|-----------2---2-2---2--2-2-|-3---3-3-3----3------3-3-3-3-3------*|
      E|-----------3---3-3---3--3-3-|--------------1------1-1-1-1-1-------|
      
        gave me your emptiness I now take to my    grave         *So
                                      (*sing this word only for 2nd time)
                                            H
      
      E|------1------------0--------|-------0-----------------------------|
      B|--------3F-3---------3------|---------1^3------------------------*|
      G|----2------------0-------0--|-------------------------------------|
      D|-0--------------------------|-----2-------------------------------|
      A|---------------2------------|-3----------------------------------*|
      E|----------------------------|-------------1-----------------------|
      
      
                 Dm   Cadd9  Bb               Am       Asus4
      E|-1------3------------3------|-0---------0------0---0---0---0---0--|
      B|-3------3------3-----3------|-1---------3------3---3---3---3---3--|
      G|-2------0------3-----0------|-2---------2------2---2---2---2---2--|
      D|-0------2------3-----0------|-2---------2------2---2---2---2---2--|
      A|--------3------1-----2------|-0---------0------0---0---0---0---0--|
      E|---------------------3------|-------------------------------------|
      
          let    this   heart be       still
      
      (verse 3)
      (guitar 1) (w/Rhytm.fig1)
      (guitar 2)
      
      E|----------------------------|--------------------------5----------|
      B|----------------------------|----------------------------3/5--6---|
      G|----------------------------|-------------------------------------|
      D|----------------------------|-------------------------------------|
      A|----------------------------|-------------------------------------|
      E|----------------------------|-------------------------------------|
      
        Mama now I'm coming home I'm not all you wished of me____        A
      
      
      E|----------------------------|------------------------5----5-5-0-5-|
      B|-6--------------------------|-------------------------------------|
      G|-7--------------------------|-----------------2--2-----2----------|
      D|----------------------------|-------------------------------------|
      A|----------------------------|-------------------------------------|
      E|----------------------------|-------------------------------------|
      
         mother's love for her son unspoken help me be         Yeah I
      
      
      E|----------------------------|---------------------------5---------|
      B|-3--------------------------|---------------------------------5-5-|
      G|-2--------------------------|-------------------------7---7-7-----|
      D|----------------------------|-------------------------------------|
      A|----------------------------|-------------------------------------|
      E|----------------------------|-------------------------------------|
      
       took your love for granted and all the things you said to me yeah I
      
      
                                Gtr.1 C                Am
      E|----0-----------------------|------0----------------0-------------|
      B|--6-------------------------|------1----------------1-------------|
      G|----------7-----------------|------0----------------2-------------|
      D|----------------------------|------2----------------2-------------|
      A|----------------------------|------3----------------0-------------|
      E|----------------------------|------0------------------------------|
      
        need your arms to welcome me  but a cold stone's all I see
      
                                      Gtr1 w/Rhythm fig.2
                                      Gtr2 w/Rhythm fig.2A
      
                                               G
      E|-(0)------------------------|-------------------------------------|
      B|-(1)------------------------|-------------------------------------|
      G|-(2)------------------------|-------------------------------------|
      D|-(2)------------------------|-------------------------------------|
      A|-(0)------------------------|-------------------------------------|
      E|----------------------------|-------------------------------------|
      
          Let      my  heart           go
      
                  Dm          Cadd9    Am     G
      E|----------------------------|-------------------------------------|
      B|----------------------------|-------------------------------------|
      G|----------------------------|-------------------------------------|
      D|----------------------------|-------------------------------------|
      A|----------------------------|-------------------------------------|
      E|----------------------------|-------------------------------------|
      
          Let          your     son   grow                         Mama
      
                  Dm      Cadd9      Am        G
      E|----------------------------|-------------------------------------|
      B|----------------------------|-------------------------------------|
      G|----------------------------|-------------------------------------|
      D|----------------------------|-------------------------------------|
      A|----------------------------|-------------------------------------|
      E|----------------------------|-------------------------------------|
      
          let      my        heart     go                            or
                 Dm    Cadd9   Bb      G       Am               Asus2   Asus4
      E|----------------------------|--0--------0-0---0-0---0----0-0-0--0-|
      B|----------------------------|--1--------1-1---1-0---0----3-3-3--3-|
      G|----------------------------|--2--------2-2---2-2---2----2-2-2--2-|
      D|----------------------------|--2--------2-2---2-2---2----2-2-2--2-|
      A|----------------------------|--0--------0-0---0-0---0----0-0-0--0-|
      E|----------------------------|-------------------------------------|
        | let   this   heart    be     still
        |Gtr2                                let ring
      E|----------------------------|-------------------------------------|
      B|----------------------------|-------------------------------------|
      Gb|(12)-(12)\------------------|-------------------------------------|
      D|----------------------------|-----------2-----2-2-------2-2---2-0-|
      A|----------------------------|--------0------0-------0-------0-----|
      E|----------------------------|-------------------------------------|
      
         Gtr1
                 Dm          Cadd9   Am       Dm
      E|--1----------3--------0-----|--1-----1---1-1---1-----1-1-1-1-1-1--|
      B|--3----------3--------1-----|--3-----3---3-3---3-----3-3-3-3-3-3--|
      G|--2----------0--------2-----|--2-----2---2-2---2-----2-2-2-2-2-2--|
      D|--0----------2--------2-----|--0-----0---0-0---0-----0-0-0-0-0-0--|
      A|-------------3--------0-----|-------------------------------------|
      E|----------------------------|-------------------------------------|
        | Let         my      heart    go                             Mama
        |Gtr2                                               *hold bend..
      E|----------------------------|----------1---------------1----------|
      B|----------------------------|----------------------3FR---3--------|
      G|----------------------------|------2------------------------------|
      D|----------------------------|--0----------------------------------|
      A|----------------------------|-------------------------------------|
      E|----------------------------|-------------------------------------|
        |
        | Gtr3
      E|----------------------------|-------------------------------------|
      B|----------------------------|-------------------------------------|
      G|--7---------5---------------|--7----------------------------------|
      D|--7---------5---------7-----|--7----------------------------------|
      A|--5---------3---------7-----|--5----------------------------------|
      E|----------------------5-----|-------------------------------------|
      
         Gtr1
                Dm         Cadd9    Am        Dm
      E|-1----------3--------0------|-1-----1---1-1---1----1-1-1-1-1-1----|
      B|-3----------3--------1------|-3-----3---3-3---3----3-3-3-3-3-3----|
      G|-2----------0--------2------|-2-----2---2-2---2----2-2-2-2-2-2----|
      D|-0----------2--------2------|-0-----0---0-0---0----0-0-0-0-0-0----|
      A|------------3--------0------|-------------------------------------|
      E|----------------------------|-------------------------------------|
        | let        my     heart                                mm ya never
        |Gtr2                                           H          H
      E|----------------------------|-----------1-----0^1----1-1-0^1------|
      B|----------------------------|-------2--------------2-3-3-----3----|
      G|----------------------------|-------------------------------------|
      D|----------------------------|-0-----------------------------------|
      A|----------------------------|-------------------------------------|
      E|----------------------------|-------------------------------------|
        |
        |Gtr3
      E|----------------------------|-------------------------------------|
      B|----------------------------|-------------------------------------|
      G|--7---------5---------------|--7----------------------------------|
      D|--7---------5---------7-----|--7----------------------------------|
      A|--5---------3---------7-----|--5----------------------------------|
      E|----------------------5-----|-------------------------------------|
      
          Gtr1
                 Dm       Cadd9       Am      Dm
      E|-1----------3---------0-----|-1-----1---1-1---1----1-1-1-1-1-1----|
      B|-3----------3---------1-----|-3-----3---3-3---3----3-3-3-3-3-3----|
      G|-2----------0---------2-----|-2-----2---2-2---2----2-2-2-2-2-2----|
      D|-0----------2---------2-----|-0-----0---0-0---0----0-0-0-0-0-0----|
      A|------------3---------0-----|-------------------------------------|
      E|----------------------------|-------------------------------------|
        | let        my        heart   go                             So
        |Gtr2
      E|----------------------------|-----------1-----3------1------------|
      B|----------------------------|-------3-----3------------3---3FR----|
      G|----------------------------|---------2-----2------2-----2--------|
      D|----------------------------|-------------------------------------|
      A|----------------------------|-0-----------------------------------|
      E|----------------------------|-------------------------------------|
        |
        |Gtr3
      E|----------------------------|-------------------------------------|
      B|----------------------------|-------------------------------------|
      G|--7---------5---------------|--7----------------------------------|
      D|--7---------5---------7-----|--7----------------------------------|
      A|--5---------3---------7-----|--5----------------------------------|
      E|----------------------5-----|-------------------------------------|
      
         Gtr1
                Dm    Cadd9    Bb     G       Am
      E|-1------3-------------3-----|-0---0---0-0---0---0-0-0-0-0-0-------|
      B|-3------3------3------3-----|-1---1---1-1---1---1-1-1-1-1-1-------|
      G|-2------0------3------0-----|-2---2---2-2---2---2-2-2-2-2-2-------|
      D|-0------2------3------0-----|-2---2---2-2---2---2-2-2-2-2-2-------|
      A|--------3------1------2-----|-0---0---0-0---0---0-0-0-0-0-0-------|
      E|----------------------3-----|-------------------------------------|
        | let    this   heart  be      still         woh
        |Gtr2
      E|----------------------------|-------------------------------------|
      B|----------------------------|-------------------------------------|
      G|----------------------------|-------------------------------------|
      D|----------------------------|---------2-2---2-2---2-2---2-2-0-----|
      A|----------------------------|-------0-----0-----0-----0-----------|
      E|----------------------------|-------------------------------------|
        |
        |Gtr3
      E|----------------------------|-------------------------------------|
      B|----------------------------|-------------------------------------|
      G|-7------5------3------------|-------------------------------------|
      D|-7------5------3------5-----|-7-----------------------------------|
      A|-5------3------1------5-----|-7-----------------------------------|
      E|----------------------3-----|-5-----------------------------------|
      
         Gtr1 w/rhythm fig.3
         Gtr  w/rhythm fig.3A
         Gtr3
      
      E|----------------------------|-------------------------------------|
      B|----------------------------|-------------------------------------|
      G|-7--------------------------|-------------------------------------|
      D|-7--------------------------|-------------------------------------|
      A|-5--------------------------|-------------------------------------|
      E|----------------------------|-------------------------------------|
      
      
      E|----------------------------|-------------------------------------|
      B|----------------------------|-------------------------------------|
      G|----------------------------|-------------------------------------|
      D|----------------------------|-------------------------------------|
      A|----------------------------|-------------------------------------|
      E|----------------------------|-------------------------------------|
      
      
      (bridge)
      (guitar 1)
      
                 Dm        G                  Cadd9       F
      E|-1--1-1-1--3---3-3---3--3-3-|-3---3-3-3---1-----1-1---1-1-1-------|
      B|-3--3-3-3--3---3-3---3--3-3-|-3---3-3-3---1-----1-1---1-1-1-------|
      G|-2--2-2-2--0---0-0---0--0-0-|-0---0-0-0---2-----2-2---2-2-2-------|
      D|-0--0-0-0--0---0-0---0--0-0-|-2---2-2-2---3-----3-3---3-3-3-------|
      A|-----------2---2-2---2--2-2-|-3---3-3-3---3-----3-3---3-3-3-------|
      E|-----------3---3-3---3--3-3-|-------------1-----1-1---1-1-1-------|
      
        |Never I   ask  of you   but   never I      gave           But you
      
      (guitar 2)              H
      
      E|------1------------0--------|-------0-----------------------------|
      B|--------3F-3---------3------|---------1^3-------------------------|
      G|----2------------0-------0--|-------------------------------------|
      D|-0--------------------------|-----2-------------------------------|
      A|---------------2------------|-3-----------------------------------|
      E|----------------------------|-------------1-----------------------|
      
      
                 Dm        G                  Cadd9        F
      E|-1--1-1-1--3---3-3---3--3-3-|-3---3-3-3----1------1-1-1-1-1-------|
      B|-3--3-3-3--3---3-3---3--3-3-|-3---3-3-3----1------1-1-1-1-1-------|
      G|-2--2-2-2--0---0-0---0--0-0-|-0---0-0-0----2------2-2-2-2-2-------|
      D|-0--0-0-0--0---0-0---0--0-0-|-2---2-2-2----3------3-3-3-3-3-------|
      A|-----------2---2-2---2--2-2-|-3---3-3-3----3------3-3-3-3-3-------|
      E|-----------3---3-3---3--3-3-|--------------1------1-1-1-1-1-------|
      
        |gave me your emptiness I now take to my    grave          So
      
                                            H
      
      E|------1------------0--------|-------0-----------------------------|
      B|--------3F-3---------3------|---------1^3-------------------------|
      G|----2------------0-------0--|-------------------------------------|
      D|-0--------------------------|-----2-------------------------------|
      A|---------------2------------|-3-----------------------------------|
      E|----------------------------|-------------1-----------------------|
      
      
         Gtr1
      
                 Dm   Cadd9  Bb    G          Am
      E|-1-----3-----------3--------|-0----------------------------------||
      B|-3-----3-----3-----3--------|-1----------------------------------||
      G|-2-----0-----3-----0--------|-2----------------------------------||
      D|-0-----2-----3-----0--------|-2----------------------------------||
      A|-------3-----1-----2--------|-0----------------------------------||
      E|-------------------3--------|------------------------------------||
      
          let   this  heart be         still_____________
        Composição: James Hetfield / Lars UlrichColaboração e revisão:
        • henrique
        • Biiip
        • jaum
        • Helth
        • bg.guitar
        • +1

        Comentários 33

        140 .
        • Maria Fernanda Maria Fernanda: Em 07/02/2016 00:20

          Gente por favor um vídeo aula dessa música u.u

        • Jonathan Jonathan: Em 03/02/2016 09:17

          muito boa e muito facil

        • Kevyn Kevyn: Em 17/12/2015 12:43

          manda video aula

        • Kevyn Kevyn: Em 16/12/2015 23:32

          Kde a video aula???

        • Alexandre Alexandre: Em 15/11/2015 18:18

          agora engenheiros!!! caceta... que site bom!!!!

        • Vinícius Vinícius: Em 02/04/2015 22:47

          meio tom abaixo fica melhor...

        • eder.costaribeiro eder.costaribeiro: Em 27/12/2013 23:56

          Muito boa de tocar

        • Renan Renan : Em 01/09/2013 10:43

          O CifraClub é o que melhor ensina, então por favor façam uma video aula, adoro essa música!

        • Edy Edy: Em 01/06/2013 14:37

          video aula!!

        • Edy Edy: Em 01/06/2013 14:32

          Video aulaa!!!

        140 cancelar

        conseguiu tocar?

        • •••

        covers

        Grave um vídeo tocando Mama Said e mande pra gente!

        Ex.: http://www.youtube.com/watch?v=0IvSvIwGdwk
        ver covers de outras músicas »
        0:00 / 0:00

        Capítulos

          1 versão de baixo exibições contribuição e correção
          1 versão de bateria exibições contribuição e correção
          1 versão de Guitar Proformatodownloadscontribuição
          play/pausefechar subir/descer velocidade
          6ª corda E5ª corda A4ª corda D3ª corda G2ª corda B1ª corda E
            acordes
            publicidade
            fechar
            ok