Cifra Club

Sad But True

Metallica

Cifra: Principal
exibições 317.393
Tom: A
(Introdução)
Riff 1
A5  A#5 (4x)

Riff 2
E5

(Primeira Parte)
Riff 3
 E5  D5(9) E5
Hey,       I'm your life
                   A#5 E5
I'm the one who takes  you there
     D5(9) E5
Hey,       I'm your life
                 A#5  E5
I'm the one who cares
      D5(9)   E5
They,       they betray
                A#5  E5
I'm your only true friend now
      D5(9)   E5
They,       they'll betray,
              A#5  E5
I'm forever there.

(Refrão)
Riff 4
I'm your dream, make you real
I'm your eyes when you must steal
I'm your pain when you can't feel
Sad but true
I'm your dream, mind astray
I'm your eyes while you're away
I'm your pain while you repay
You know it's sad but true
Sad but true

Riff 2

(Primeira Parte)
Riff 3
 E5  D5(9)  E5
You,       you're my mask
                  A#5 E5
you're my cover, my shelter
     D5(9)  E5
You,       you're my mask
                 A#5   E5
you're the one who's blamed
    D5(9)  E5
Do,       do my work
             A#5    E5
Do my dirty work, scapegoat
    A#5  E5
Do,     do my deeds
                           A#5  E5
For you're the one who's shamed

(Refrão)
Riff 4
I'm your dream, make you real
I'm your eyes when you must steal
I'm your pain when you can't feel
Sad but true
I'm your dream, mind astray
I'm your eyes while you're away
I'm your pain while your repay
You know it's sad but true
Sad but true

(Passagem)
A5 A#5 (4x)
Passagem - Parte 1 de 3
---------------------------------------------------
---------------------------------------------------
---------------------------------------------------
--------------2----/7-6-5-2---/7-6-5-3---/7-6-5-2--
-----0h1p0----0------------------------------------
0--3-------3---------------------------------------

Passagem - Parte 2 de 3
---------------------------------------------------
---------/5-4-3------/5-4-3----------4---3---------
----------------/2----------/3---2-2---2---2--2----
/7-6-5-3-------------------------------------------
---------------------------------------------------
---------------------------------------------------

Passagem - Parte 3 de 3
---------------------------------------------------
----4---3------------------------------------------
2-2---2---2-3--------------------------------------
---------------------------------------------------
---------------------------------------------------
---------------------------------------------------

(Solo 1)
Riff 2


Solo 1 - Parte 1 de 11
---------------------------------------------------
------------12-12-12b-----12-----------------------
/13---------12-12-12b-----12-----------------------
/14-/12--14-----------14-----14-12----12h14-12-12--
-----------------------------------14--------------
---------------------------------------------------

Solo 1 - Parte 2 de 11
---------------------------------------------------
---------------------------------------------------
------------12---------------------9p7p6-----------
----12--14------14--12------12h14---------9p7-7-7h9
14----------------------14-------------------------
---------------------------------------------------

Solo 1 - Parte 3 de 11
---------------------------------------------------
----------------------------------12h15p12h15------
4h5p4---4-------------------14b16-------------14b16
------7---7-5-4--------7/9-------------------------
----------------5--5/7-----------------------------
---------------------------------------------------

Solo 1 - Parte 4 de 11
---------------------------------------------------
12h15p12----12h15p12----12h15p12-------------------
---------14----------14----------14p12-------------
----------------------------------------12-12------
---------------------------------------------------
---------------------------------------------------

Solo 1 - Parte 5 de 11
---------------------------------------------------
---------------------------------------------------
------12----14p12----------------------------------
12h14----14-------14p12----------------------------
------------------------14p12-10-12-10-------------
---------------------------------------------------

Solo 1 - Parte 6 de 11
---------------------------------------------------
14b~-b~--b~p12-----12-14-14b~p12-----------14-12---
14b~-b~--b~p12-----12-14-14b~p12------12---14-12---
---------------14------------------14--------------
---------------------------------------------------
---------------------------------------------------

Solo 1 - Parte 7 de 11
---------------------------------------------------
14b~-12--14b~-12--14b~-12--14b~-12-----------------
14b~-12--14b~-12--14b~-12--14b~-12--14b16----------
---------------------------------------------------
---------------------------------------------------
---------------------------------------------------

Solo 1 - Parte 8 de 11
---------------------------------------------------
---------------------------------------------12----
---------------------------12----12-14-12-14----14-
---------12----12-14-12-14----14-------------------
14-12-14----14-------------------------------------
---------------------------------------------------

Solo 1 - Parte 9 de 11
---------------------12h15p12----12-12-12-12h15p12-
12-13P12-13-15-15-15----------15-------------------
---------------------------------------------------
---------------------------------------------------
---------------------------------------------------
---------------------------------------------------

Solo 1 - Parte 10 de 11
---12-12-12--12h15p12------------------------------
15--------------------15p13----13-15p13----13-15---
----------------------------14----------14---------
---------------------------------------------------
---------------------------------------------------
---------------------------------------------------

Solo 1 - Parte 11 de 11
12-------------------------------------------------
15b17~~--------------------------------------------
---------------------------------------------------
---------------------------------------------------
---------------------------------------------------
---------------------------------------------------
(Solo 1)
Solo 1 - Parte 1 de 11
---------------------------------------------------
------------12-12-12b-----12-----------------------
/13---------12-12-12b-----12-----------------------
/14-/12--14-----------14-----14-12----12h14-12-12--
-----------------------------------14--------------
---------------------------------------------------

Solo 1 - Parte 2 de 11
---------------------------------------------------
---------------------------------------------------
------------12---------------------9p7p6-----------
----12--14------14--12------12h14---------9p7-7-7h9
14----------------------14-------------------------
---------------------------------------------------

Solo 1 - Parte 3 de 11
---------------------------------------------------
----------------------------------12h15p12h15------
4h5p4---4-------------------14b16-------------14b16
------7---7-5-4--------7/9-------------------------
----------------5--5/7-----------------------------
---------------------------------------------------


(Refrão)
Riff 4
I'm your dream
I'm your eyes
I'm your pain
I'm your dream (I'm your dream)
I'm your eyes (I'm your eyes)
I'm your pain (I'm your pain)
You know it's sad but true

Solo 2
Solo 2 - Parte 1 de 4
--------------------------------------0------------
------------------------------------0---3b5-3b5r3p0
--------------------------------2b4----------------
2~--2p0--2~--2p0--2~--2p0--2~----------------------
---------------------------------------------------
---------------------------------------------------

Solo 2 - Parte 2 de 4
H.A.                            .
---------------------------------------------------
---------------------------------------------------
-2b3r2p0----4b6--4b6--4b6--4b6--4b6--0-------------
---------2-----------------------------2-----------
---------------------------------------------------
---------------------------------------------------

Solo 2 - Parte 3 de 4
---------------------------------------------------
------12-12--12-12----12-12-12-12--12-12-----------
------12-12--12-12----12-12-12-12--12-12-----------
12-14----------------------------------------------
---------------------------------------------------
---------------------------------------------------

Solo 2 - Parte 4 de 4
-----------12-------12-------12--------------------
-------12-----13b15----13b15----13b15--------------
-14b16---------------------------------------------
---------------------------------------------------
---------------------------------------------------
---------------------------------------------------






(Primeira Parte)
Riff 3 com variação
 E5   A#5 E5
Hate,     I'm your hate
                D5(9)   E5
I'm your hate when you want love
Pay, pay the price
Pay for nothing's fair
Hey, I'm your life
I'm the one who took you here
Hey, I'm your life
And I no longer care

(Refrão)
Riff 4
I'm your dream, make you real
I'm your eyes when you must steal
I'm your pain when you can't feel
Sad but true
I'm your truth, telling lies
I'm your reason alibis
I'm inside, open your eyes
I'm you
Sad but true

Riff 2 com variação
Acordes para:
    Composição: James Hetfield / Lars UlrichColaboração e revisão:
    • marcel cordeiro

    0 comentários

      mostrar mais comentários

      Conseguiu tocar?

      36tocaram1ainda não

      Grave um vídeo tocando Sad But True e mande pra gente!

      00:00 / 00:00
      outros vídeos desta música
      repetirqualidadeautomática
      Outro vídeos desta música
        00:00 / 00:00
        automática
        Capítulos
        • Início
        • Afinação
        • Tocando a música
        • Configuração dos Efeitos
        • Acordes da Introdução
        • Tocando Introdução
        • Ensinando Introdução
        • Acordes da Primeira Parte
        • Tocando Primeira Parte
        • Ensinando Primeira Parte
        • Acordes do Refrão
        • Tocando Refrão
        • Ensinando Refrão
        • Tocando Solo 1
        • Ensinando Passagem
        • Ensinando Solo 1
        • Tocando Solo 2
        • Ensinando Solo 2
        • Tocando Variação do Final
        • Ensinando Variaçãodo FInal
        • Encerramento
        OK