Enviar cifraEntrar

Wherever I May Roam

Metallica

Cifra: Principal
exibições 96.156
Tom: A
Wherever i may roam
Metallica

Tom: Mi Frígio
(Introdução):



-------0-0p1-0---------0-3p5-1---------------------
---------------------------------------------------
---------------------------------------------------
---------------------------------------------------
---------------------------------------------------
-0---------------0---------------------------------

 1 . . . 2 . . . 3 . . . 4 . . .



-0-----0-0p1-0-------------------------------------
---------------------------------------------------
---------------------------------------------------
---------------------------------------------------
---------------------------------------------------
-0-------------------------------------------------

 1 . . . 2 . . . 3 . . . 4 . . .



-------0-0p1-0---------0-3p5-1---------------------
---------------------------------------------------
---------------------------------------------------
---------------------------------------------------
---------------------------------------------------
-0---------------0---------------------------------

 1 . . . 2 . . . 3 . . . 4 . . .



-0-----0-0p1-0-------------------------------------
---------------------------------------------------
---------------------------------------------------
---------------------------------------------------
---------------------------------------------------
-0-------------------------------------------------

 1 . . . 2 . . . 3 . . . 4 . . .



-------0-0p1-0---------0-3p5-3p1-------------------
---------------------------------------------------
---------------------------------------------------
---------------------------------------------------
---------------------------------------------------
-0---------------0---------------------------------

 1 . . . 2 . . . 3 . . . 4 . . .



-0-------------------------------------------------
---------------------------------------------------
---------------------------------------------------
---------------------------------------------------
---------------------------------------------------
-0-------------------------------------------------

 1 . . . 2 . . . 3 . . . 4 . . .



---------------------------------------------------
---------------------------------------------------
---------------------------------------------------
-2-----2-2h3-1---------5-5h7-3---------------------
-2-------------------------------------------------
-0-------------------------------------------------

 1 . . . 2 . . . 3 . . . 4 . . .



---------------------------------------------------
---------------------------------------------------
---------------------------------------------------
-2-----2-2h3-2-------------------------------------
---------------------------------------------------
---------------------------------------------------

 1 . . . 2 . . . 3 . . . 4 . . .



---------------------------------------------------
---------------------------------------------------
---------------------------------------------------
-2-----2-2h3-1---------5-5h7-3---------------------
-2-------------------------------------------------
-0-------------------------------------------------

 1 . . . 2 . . . 3 . . . 4 . . .



---------------------------------------------------
---------------------------------------------------
---------------------------------------------------
-2-----2-2h3-2-------------------------------------
---------------------------------------------------
---------------------------------------------------

 1 . . . 2 . . . 3 . . . 4 . . .



---------------------------------------------------
---------------------------------------------------
---------------------------------------------------
-2---3---4---5---2-----2-2h3-2---2-----5-5h7-3-----
-0---1---2---3---2---------------2-----------------
-----------------0---------------0-----------------

 1 . 2 . 3 . 4 . 1 . 2 . 3 . 4 . 1 . 2 . 3 . 4 .



---------------------------------------------------
---------------------------------------------------
---------------------------------------------------
-2-----2-2h3-2---2---3---4---5---2-----2-2h3-2-----
-2---------------0---1---2---3---2-----------------
-0-------------------------------0-----------------

 1 . 2 . 3 . 4 . 1 . 2 . 3 . 4 . 1 . 2 . 3 . 4 .



---------------------------------------------------
---------------------------------------------------
---------------------------------------------------
-2-----5-5h7-3---2-----2-2h3-2---2---3---4---5-----
-2---------------2---------------0---1---2---3-----
-0---------------0---------------------------------

 1 . 2 . 3 . 4 . 1 . 2 . 3 . 4 . 1 . 2 . 3 . 4 .


 P.M....

---------------------------------------------------
---------------------------------------------------
---------------------------------------------------
-7-9-9-9---------2-----5-5h7-3---2-----2-2h3-2-----
-5-7-7-7-7h8-7---2---------------2-----------------
-----------------0---------------0-----------------

 1 . 2 . 3 . 4 . 1 . 2 . 3 . 4 . 1 . 2 . 3 . 4 .



---------------------------------------------------
---------------------------------------------------
---------------------------------------------------
-2---3---4---5-----------2-------------------------
-0---1---2---3---5-7-7-7-2-------------------------
-------------------------0-------------------------

 1 . 2 . 3 . 4 . 1 . 2 . 1 . . . 2 . . . 3 . . .


E5                           F5
...And the road becomes my bride
F5                           E5
...And the road becomes my bride
                             Bb5
I have stripped of all but pride
                      A5
So in her I do confider
                         Bb5
And she keeps me satisfied
                  E5
Gives me all I need
                               Bb5
...And with dust in throat I crave
                        G5
Only knowledge will I save
                          Bb5
To the game you stay a slave
Rover wanderer
B5    C5
Nomad vagabond
E5
Call me what you will, oh
(E5) A5 Bb5 B5 C5
F5                       E5
But Ill take my time anywhere
                             Bb5
Free to speak my mind anywhere
                          A5
And I'll redefine anywhere
Anywhere I roam
G5
Where I lay my head is home
(E5)      A5 Bb5 B5 C5
E5                           F5
...And the earth becomes my throne

F5                            E5
...And the earth becomes my throne
                       Bb5
I adapt to the unknown
                               A5
Under wandering stars I've grown
                      Bb5
By myself but not alone
            E5
I ask no one
                              Bb5
...And my ties are severed clean
                              G5
The less I have the more I gain
                            Bb5
Off the beaten path I reign
Rover wanderer
B5     C5
Nomad vagabond
E5
Call me what you will
F5                       E5
But I'll take my time anywhere
                                Bb5
I'm free to speak my mind anywhere
And I'll never mind anywhere
A5
Anywhere I roam

G5                           Solo: E5
Where I lay my head is home
F5                        E5
But I'll take my time anywhere
                   Bb5
Free to speak my mind
And Ill take my find anywhere
A5
Anywhere I roam
G5
Where I lay my head is home

Solo: E5  A5  Bb5  B5  C5 (2x)
      E5  F5  E5  Bb5  B5  C5  E5  E5  A5  Bb5  B5  C5

F5                        E5
But I'll take my time anywhere
                           Bb5
Free to speak my mind anywhere
And Ill redefine anywhere
A5
Anywhere I roam
G5
Where I lay my head is home
C5
Carved upon my stone
B5             Bb5                 E5      ( E5 ) A5 Bb5 B5 C5
My body lie, but still I roam, yeah, yeah
A5         Bb5    B5 C5       ( E5 )
Wherever I may   roam
A5        Bb5    B5 C5       ( E5 )
Wherever I may   roam
A5         Bb5    B5 C5
Wherever I may   roam
  • 1
  • 2
  • 3
  • 4
  • 5
  • 6
  • 7
  • 8
  • 9
  • 10
  • 11
  • 12
    Acordes para:
      Composição: James Hetfield / Lars UlrichColaboração e revisão:
      • Anna
      • punisher.17

      0 comentários

        mostrar mais comentários

        Conseguiu tocar?

        17tocaram0ainda não

        Grave um vídeo tocando Wherever I May Roam e mande pra gente!

        00:00 / 00:00
        outros vídeos desta música
        repetirqualidadeautomática
        • automática
        Outro vídeos desta música
          00:00 / 00:00
          automática
          • automática
          1 versão de Tab de baixoexibiçõescontribuições
          1 versão de Tab de bateriaexibiçõescontribuições
          1 versão de Tab de gaitaexibiçõescontribuições
          2 versões de Guitar Proformatodownloadscontribuição
          fecharplay/pause subir/descer velocidade
            acordes
            fechar
            OK
            Feedback