Cifra Club

Wherever I May Roam

Metallica

Cifra: Principal (violão e guitarra)
Selo Cifra Club: esta cifra foi revisada para atender aos critérios oficiais da nossa Equipe de Qualidade.
tom: Em
[Intro 1]

[Tab - Intro 1 - Guitarra 1]

E|-0-0h1--0----3-3h5--1--0----0-0h1--0----------------|
B|----------------------------------------------------|
G|----------------------------------------------------|
D|----------------------------------------------------|
A|----------------------------------------------------|
E|----------------------------------------------------|

E|-0-0h1--0----3-3h5--1--0----0-0h1--0----------------|
B|----------------------------------------------------|
G|----------------------------------------------------|
D|----------------------------------------------------|
A|----------------------------------------------------|
E|----------------------------------------------------|

E|-0-0h1--0----3-3h5--3\1--0--------------------------|
B|----------------------------------------------------|
G|----------------------------------------------------|
D|----------------------------------------------------|
A|----------------------------------------------------|
E|----------------------------------------------------|

[Tab - Intro 1 - Guitarra 2]

E|----------------------------------------------------|
B|----------------------------------------------------|
G|----------------------------------------------------|
D|----------------------------------------------------|
A|-7-7h8--7----10-10h12--8--7----7-7h8--7-------------|
E|----------------------------------------------------|

E|----------------------------------------------------|
B|----------------------------------------------------|
G|----------------------------------------------------|
D|----------------------------------------------------|
A|-7-7h8--7----10-10h12--8--7----7-7h8--7-------------|
E|----------------------------------------------------|

E|----------------------------------------------------|
B|----------------------------------------------------|
G|----------------------------------------------------|
D|----------------------------------------------------|
A|-7-7h8--7----10-10h12--10\8--7----------------------|
E|----------------------------------------------------|

[Intro 2] E5  A5  Bb5  B5  C5
   
   E5
E|----------------------------------------------------|
B|----------------------------------------------------|
G|----------------------------------------------------|
D|-2-------------------------------9------------------|
A|-2----/7-7h8--7~----10-10/12--8--7----7-7h8--7~-----|
E|-0-------------------------------0------------------|

E|----------------------------------------------------|
B|----------------------------------------------------|
G|----------------------------------------------------|
D|-2-------------------------------9------------------|
A|-2----/7-7h8--7~----10-10/12--8--7----7-7h8--7~-----|
E|-0-------------------------------0------------------|

   A5  Bb5 B5  C5
E|----------------------------------------------------|
B|----------------------------------------------------|
G|----------------------------------------------------|
D|----------------------------------------------------|
A|-7---8---9---10-------------------------------------|
E|-5---6---7----8-------------------------------------|

[Intro 3] E5  A5  Bb5  B5  C5
          E5  A5  Bb5  B5  C5  
          E5  A5  Bb5  B5  C5 

     P.M.                      .
E|----------------------------------------------------|
B|----------------------------------------------------|
G|----------------------------------------------------|
D|-2------------------------9-------------------------|
A|-2-----/7-7h8-7h8p7h8p7h8-7-----10-10/12--8---------|
E|-0--0---------------------0--0----------------------|

     P.M.
E|----------------------------------------------------|
B|----------------------------------------------------|
G|----------------------------------------------------|
D|-9--------------------------------------------------|
A|-7-----7-7h8-7h8p7h8p7h8--7---8---9---10\-----------|
E|-0--0---------------------5---6---7----8\-----------|

     P.M.                      .
E|----------------------------------------------------|
B|----------------------------------------------------|
G|----------------------------------------------------|
D|-2------------------------9-------------------------|
A|-2-----/7-7h8-7h8p7h8p7h8-7-----10-10/12--8---------|
E|-0--0---------------------0--0----------------------|

     P.M.
E|----------------------------------------------------|
B|----------------------------------------------------|
G|----------------------------------------------------|
D|-9--------------------------------------------------|
A|-7-----7-7h8-7h8p7h8p7h8--7---8---9--10---5--6--7--8|
E|-0--0---------------------5---6---7---8-------------|

                     P.M.
E|----------------------------------------------------|
B|----------------------------------------------------|
G|----------------------------------------------------|
D|-----------------9----------------------------------|
A|-7-8-7h8p7h8p7h8-7-----10-10/12--8------------------|
E|-----------------0--0-------------------------------|

     P.M.
E|----------------------------------------------------|
B|----------------------------------------------------|
G|----------------------------------------------------|
D|-9--------------------------------------------------|
A|-7-----7-7h8-7h8p7h8p7h8--7---8---9--10---5--6--7--8|
E|-0--0---------------------5---6---7---8-------------|

[Primeira Parte]

[Tab - Primeira Parte]

   E5
E|------------------------------------------|
B|------------------------------------------|
G|------------------------------------------|
D|-2----------------------------------------|
A|-2----------------------------------------|
E|-0----------------------------------------|

   F5
  P.M . 
E|------------------------------------------|
B|------------------------------------------|
G|------------------------------------------|
D|-------3----------------------------------|
A|----3-------------------------------------|
E|-1----------------------------------------|

   E5
  P.M..  .
E|------------------------------------------|
B|------------------------------------------|
G|----------0-------------------------------|
D|-------2----------------------------------|
A|----2-------------------------------------|
E|-0----------------------------------------|

   F5
  P.M..
E|------------------------------------------|
B|------------------------------------------|
G|------------------------------------------|
D|-------3----------------------------------|
A|----3-------------------------------------|
E|-1----------------------------------------|

   E5
E|------------------------------------------|
B|------------------------------------------|
G|------------------------------------------|
D|-2----------------------------------------|
A|-2----------------------------------------|
E|-0----------------------------------------|

   Bb5 
E|------------------------------------------|
B|------------------------------------------|
G|-3----------------------------------------|
D|-3----------------------------------------|
A|-1----------------------------------------|
E|------------------------------------------|

   A5
E|------------------------------------------|
B|------------------------------------------|
G|-2----------------------------------------|
D|-2----------------------------------------|
A|-0----------------------------------------|
E|------------------------------------------|

   Bb5
E|------------------------------------------|
B|------------------------------------------|
G|-3------------------x--x------------------|
D|-3------------------x--x------------------|
A|-1------------------x--x------------------|
E|------------------------------------------|

E5  F5  E5
           And the road
             F5
Becomes my bride
                          E5
And the road becomes my bride
                             Bb5
I have stripped of all but pride
                   A5
So in her I do confide
                       Bb5
And she keeps me satisfied
                E5
Gives me all I need

[Segunda Parte]

[Tab - Segunda Parte]

   E5
E|------------------------------------------|
B|------------------------------------------|
G|------------------------------------------|
D|-2----------------------------------------|
A|-2----------------------------------------|
E|-0----------------------------------------|

   Bb5
E|------------------------------------------|
B|------------------------------------------|
G|-3----------------------------------------|
D|-3----------------------------------------|
A|-1----------------------------------------|
E|------------------------------------------|

   G5
E|------------------------------------------|
B|------------------------------------------|
G|------------------------------------------|
D|-5----------------------------------------|
A|-5----------------------------------------|
E|-3----------------------------------------|

   Bb5
E|------------------------------------------|
B|------------------------------------------|
G|-3----------------------------------------|
D|-3----------------------------------------|
A|-1----------------------------------------|
E|------------------------------------------|

                 P.M..  .  .
E|------------------------------------------|
B|------------------------------------------|
G|-3---3------------------------------------|
D|-3---3------------------------------------|
A|-1---1---2---3--5--6--7--8----------------|
E|------------------------------------------|

                      P.M.         
E|----------------------------------------------------|
B|----------------------------------------------------|
G|----------------------------------------------------|
D|-----------------9----------------------------------|
A|-7-8-7h8p7h8p7h8-7------10-10/12--10----------------|
E|-----------------0---0------------------------------|
     
      P.M.                           
E|----------------------------------------------------|
B|----------------------------------------------------|
G|----------------------------------------------------|
D|-9--------------------------------------------------|
A|-7------7-7h8-7h8p7h8p7h8--7---8---9---10-----------|
E|-0---0---------------------5---6---7----8-----------|

                            Bb5
And with dust in throat I crave
                       G5
Only knowledge will I save
                         Bb5
To the game you stay a slave

Rover, wanderer

Nomad, vagabond

Call me what you will

( E5  A5  Bb5  B5  C5 )

[Refrão]

[Tab - Refrão]

        P.M.
E|------------------------------------------|
B|------------------------------------------|
G|------------------------------------------|
D|-3--3------3------3-----------------------|
A|-3--3------3------3--7h8-7h8p7h8p7h8------|
E|-1--1--1-1-1--1-1-1-----------------------|

        P.M.
E|------------------------------------------|
B|------------------------------------------|
G|------------------------------------------|
D|-2--2------2------2-----------------------|
A|-2--2------2------2--7h8-7h8p7h8p7h8------|
E|-0--0--0-0-0--0-0-0-----------------------|

        P.M.
E|------------------------------------------|
B|------------------------------------------|
G|-3--3------3------3-----------------------|
D|-3--3------3------3-----------------------|
A|-1--1--1-1-1--1-1-1--7h8-7h8p7h8p7h8------|
E|------------------------------------------|

   A5
E|------------------------------------------|
B|------------------------------------------|
G|-2----------------------------------------|
D|-2----------------------------------------|
A|-0----------------------------------------|
E|------------------------------------------|

   G5
E|------------------------------------------|
B|------------------------------------------|
G|------------------------------------------|
D|-5----------------------------------------|
A|-5----------------------------------------|
E|-3----------------------------------------|

F5                                E5
   But I'll take my time anywhere
                               Bb5
Free to speak my mind anywhere

And I'll redefine anywhere
A5
Anywhere I roam
  G5
Where I lay my head is home

[Interlúdio] E5  A5  Bb5  B5  C5
             E5  A5  Bb5  B5  C5 

[Tab - Interlúdio]

     P.M.
E|----------------------------------------------------|
B|----------------------------------------------------|
G|----------------------------------------------------|
D|-2------------------------9-------------------------|
A|-2-----/7-7h8-7h8p7h8p7h8-7-----10-10/12--10--------|
E|-0--0---------------------0--0----------------------|

     P.M.
E|----------------------------------------------------|
B|----------------------------------------------------|
G|----------------------------------------------------|
D|-9--------------------------------------------------|
A|-7-----7-7h8-7h8p7h8p7h8--7---8---9---10\-----------|
E|-0--0---------------------5---6---7----8\-----------|

     P.M.
E|----------------------------------------------------|
B|----------------------------------------------------|
G|----------------------------------------------------|
D|-2------------------------9-------------------------|
A|-2-----/7-7h8-7h8p7h8p7h8-7-----10-10/12--10--------|
E|-0--0---------------------0--0----------------------|

     P.M.
E|----------------------------------------------------|
B|----------------------------------------------------|
G|----------------------------------------------------|
D|-9--------------------------------------------------|
A|-7-----7-7h8-7h8p7h8p7h8--7---8---9--10---5--6--7--8|
E|-0--0---------------------5---6---7---8-------------|

[Terceira Parte]

[Tab - Terceira Parte]

   E5
E|------------------------------------------|
B|------------------------------------------|
G|------------------------------------------|
D|-2----------------------------------------|
A|-2----------------------------------------|
E|-0----------------------------------------|

  P.M.. 
E|------------------------------------------|
B|------------------------------------------|
G|------------------------------------------|
D|-------3----------------------------------|
A|----3-------------------------------------|
E|-1----------------------------------------|

   E5
E|------------------------------------------|
B|------------------------------------------|
G|------------------------------------------|
D|-2----------------------------------------|
A|-2----------------------------------------|
E|-0----------------------------------------|

   Bb5 
E|------------------------------------------|
B|------------------------------------------|
G|-3----------------------------------------|
D|-3----------------------------------------|
A|-1----------------------------------------|
E|------------------------------------------|

   A5
E|------------------------------------------|
B|------------------------------------------|
G|-2----------------------------------------|
D|-2----------------------------------------|
A|-0----------------------------------------|
E|------------------------------------------|

   Bb5
E|------------------------------------------|
B|------------------------------------------|
G|-3------------------x--x------------------|
D|-3------------------x--x------------------|
A|-1------------------x--x------------------|
E|------------------------------------------|

E5                             F5
   And the Earth becomes my throne
                            E5
And the Earth becomes my throne
                   Bb5
I adapt to the unknown
                             A5
Under wandering stars I've grown
                     Bb5
By myself, but not alone
         E5
I ask no one

[Quarta Parte]

   E5
E|------------------------------------------|
B|------------------------------------------|
G|------------------------------------------|
D|-2----------------------------------------|
A|-2----------------------------------------|
E|-0----------------------------------------|

   Bb5
E|------------------------------------------|
B|------------------------------------------|
G|-3----------------------------------------|
D|-3----------------------------------------|
A|-1----------------------------------------|
E|------------------------------------------|

   G5
E|------------------------------------------|
B|------------------------------------------|
G|------------------------------------------|
D|-5----------------------------------------|
A|-5----------------------------------------|
E|-3----------------------------------------|

   Bb5
E|------------------------------------------|
B|------------------------------------------|
G|-3----------------------------------------|
D|-3----------------------------------------|
A|-1----------------------------------------|
E|------------------------------------------|

                 P.M..  .  .
E|------------------------------------------|
B|------------------------------------------|
G|-3---3------------------------------------|
D|-3---3------------------------------------|
A|-1---1---2---3--5--6--7--8----------------|
E|------------------------------------------|

                     P.M.                   
E|----------------------------------------------------|
B|----------------------------------------------------|
G|----------------------------------------------------|
D|-----------------9----------------------------------|
A|-7-8-7h8p7h8p7h8-7-----10-10/12--10-----------------|
E|-----------------0--0-------------------------------|

     P.M.                                 
E|----------------------------------------------------|
B|----------------------------------------------------|
G|----------------------------------------------------|
D|-9--------------------------------------------------|
A|-7-----/7-7h8-7h8p7h8p7h8--7---8---9---10-----------|
E|-0--0----------------------5---6---7----8-----------|

                          Bb5
And my ties are severed clean
                         G5
Less I have, the more I gain
                       Bb5
Off the beaten path I reign

Rover, wanderer

Nomad, vagabond

Call me what you will

And you will

( E5  A5  Bb5  B5  C5 )

[Refrão]

F5                                E5
   But I'll take my time anywhere
                                   Bb5
I'm free to speak my mind anywhere

And I'll never mind anywhere
A5
Anywhere I roam
  G5
Where I lay my head is home

[Ponte] E5 

[Tab - Ponte]

E|------------------------------------------|
B|------------------------------------------|
G|------------------------------------------|
D|-2----------------------------------------|
A|-2------/7-7h8-7h8p7h8p7h8----------------|
E|-0---0------------------------------------|

E|------------------------------------------|
B|------------------------------------------|
G|-----------------------------9~\----------|
D|-----------------------9h10---------------|
A|-11h12-11h12p11h12p11---------------------|
E|------------------------------------------|

      P.M..  .  .   .   .  .   .  .
E|------------------------------------------|
B|-----------------------------------7h8----|
G|-----------------------------8--9-------9~|
D|-2--------------------9--10---------------|
A|-2------7--8--11--12----------------------|
E|-0---0------------------------------------|

[Refrão]

F5                                E5
   But I'll take my time anywhere
                          Bb5
I'm free to speak my mind

And I'll take my find anywhere
A5
Anywhere I roam
  G5
Where I lay my head is home

That's where

[Solo] E5  A5  Bb5  B5  C5 
       E5  A5  Bb5  B5  C5  D5
       E5  Bb5  G5  Bb5  B5  C5
       E5  A5  Bb5  B5  C5  D5

[Tab - Solo]

Parte 1 de 6
E|-12\----x-x-----------------------------------------|
B|-12\----x-x-----------------------------------------|
G|--------x-x-9~------9-10b~--------------------------|
D|--------x-x------10---------------------------------|
A|----------------------------------------------------|
E|----------------------------------------------------|

E|----------------------------------------------------|
B|--------9-12p9-10p9---------------------------------|
G|-11b13--------------10-9-10p9-----------------------|
D|------------------------------10\-------------------|
A|----------------------------------------------------|
E|----------------------------------------------------|

E|-12\----x-x-----------------------------------------|
B|-12\----x-x-----------------------------------------|
G|--------x-x-9~------9-10b~--------------------------|
D|--------x-x------10---------------------------------|
A|----------------------------------------------------|
E|----------------------------------------------------|

E|----------------------------------------------------|
B|-15b17r-b17~----------------------------------------|
G|----------------------------------------------------|
D|----------------------------------------------------|
A|----------------------------------------------------|
E|----------------------------------------------------|

Parte 2 de 6
   T     T           T     T
E|-17p16-17p16p13p12-17p16-17p16p13p12----------------|
B|----------------------------------------------------|
G|----------------------------------------------------|
D|----------------------------------------------------|
A|----------------------------------------------------|
E|----------------------------------------------------|

   T     T           T     T
E|-17p16-17p16p13p12-17p16-17p16p13p12----------------|
B|----------------------------------------------------|
G|----------------------------------------------------|
D|----------------------------------------------------|
A|----------------------------------------------------|
E|----------------------------------------------------|

   T     T           T     T
B|-17p16-17p16p13p12-17p16-17p16p13p12----------------|
G|----------------------------------------------------|
D|----------------------------------------------------|
A|----------------------------------------------------|
E|----------------------------------------------------|
E|----------------------------------------------------|
   T     T           T     T
G|-17p16-17p16p13p12-17p16-17p16p13p12----------------|
D|----------------------------------------------------|
A|----------------------------------------------------|
E|----------------------------------------------------|
E|----------------------------------------------------|
B|----------------------------------------------------|

E|----------------------------------------------------|
B|-15~~p13p12-15p13p12-15~~p13p12-p15p13p12-----------|
G|----------------------------------------------------|
D|----------------------------------------------------|
A|----------------------------------------------------|
E|----------------------------------------------------|

E|----------------------------------------------------|
B|-15~~p13p12-15p13p12-15~~p13p12-p15p13p12-----------|
G|----------------------------------------------------|
D|----------------------------------------------------|
A|----------------------------------------------------|
E|----------------------------------------------------|

E|----------------------------------------------------|
B|-13p12--------------15b17r-15b17~~------------------|
G|-------14-13-14~------------------------------------|
D|----------------------------------------------------|
A|----------------------------------------------------|
E|----------------------------------------------------|

Parte 3 de 6
E|----------------------------------------------------|
B|-b17r15--12-15~-------------------------------------|
G|----------------------------------------------------|
D|----------------------------------------------------|
A|----------------------------------------------------|
E|----------------------------------------------------|

E|-12h13-16-17-17-17----17p16-13-12~------------------|
B|----------------------------------------------------|
G|----------------------------------------------------|
D|----------------------------------------------------|
A|----------------------------------------------------|
E|----------------------------------------------------|

E|-12h13p12\-7~---------------------------------------|
B|----------------------------------------------------|
G|----------------------------------------------------|
D|----------------------------------------------------|
A|----------------------------------------------------|
E|----------------------------------------------------|

E|-3-3-3/6--6~~---------------------------------------|
B|-3-3-3/6--6~~---------------------------------------|
G|----------------------------------------------------|
D|----------------------------------------------------|
A|----------------------------------------------------|
E|----------------------------------------------------|

Parte 4 de 6
E|-10--10\--7/8-8/9-9/10-10/12-12/15------------------|
B|-10--10\--7/8-8/9-9/10-10/12-12/15------------------|
G|----------------------------------------------------|
D|----------------------------------------------------|
A|----------------------------------------------------|
E|----------------------------------------------------|

E|-19~--19~~--------22b24r--b24rb24~------------------|
B|----------------------------------------------------|
G|----------------------------------------------------|
D|----------------------------------------------------|
A|----------------------------------------------------|
E|----------------------------------------------------|

Parte 5 de 6
E|-16h19p16p0-0-0-19p16p0-0-0-19p16p0-0-0-19p16p0-0-0-|
B|----------------------------------------------------|
G|----------------------------------------------------|
D|----------------------------------------------------|
A|----------------------------------------------------|
E|----------------------------------------------------|

Parte 6 de 6
E|-16h19p16-13--13h16p13-12-12-12h13p12-10p13p10------|
B|----------------------------------------------------|
G|----------------------------------------------------|
D|----------------------------------------------------|
A|----------------------------------------------------|
E|----------------------------------------------------|

E|-10h12p10-8-8-8h10p8--------------------------------|
B|----------------------------------------------------|
G|----------------------------------------------------|
D|----------------------------------------------------|
A|----------------------------------------------------|
E|----------------------------------------------------|

[Refrão]

[Tab - Refrão]

        P.M.    . .
E|------------------------------------------|
B|------------------------------------------|
G|------------------------------------------|
D|-3--3------3------3-----------------------|
A|-3--3------3------3--7h8-7h8p7h8p7h8------|
E|-1--1--1-1-1--1-1-1-----------------------|

        P.M.    . .
E|------------------------------------------|
B|------------------------------------------|
G|------------------------------------------|
D|-2--2------2------2-----------------------|
A|-2--2------2------2--7h8-7h8p7h8p7h8------|
E|-0--0--0-0-0--0-0-0-----------------------|

        P.M.    . .
E|------------------------------------------|
B|------------------------------------------|
G|-3--3------3------3-----------------------|
D|-3--3------3------3-----------------------|
A|-1--1--1-1-1--1-1-1--7h8-7h8p7h8p7h8------|
E|------------------------------------------|

   A5
E|------------------------------------------|
B|------------------------------------------|
G|-2----------------------------------------|
D|-2----------------------------------------|
A|-0----------------------------------------|
E|------------------------------------------|

   G5
E|------------------------------------------|
B|------------------------------------------|
G|------------------------------------------|
D|-5----------------------------------------|
A|-5----------------------------------------|
E|-3----------------------------------------|

   C5/G
E|------------------------------------------|
B|------------------------------------------|
G|-5----------------------------------------|
D|-5----------------------------------------|
A|-3----------------------------------------|
E|-3----------------------------------------|

   B5/F#
E|------------------------------------------|
B|------------------------------------------|
G|-4----------------------------------------|
D|-4----------------------------------------|
A|-2----------------------------------------|
E|-2----------------------------------------|

                 P.M..  .
E|------------------------------------------|
B|------------------------------------------|
G|-3----------------------------------------|
D|-3----------------------------------------|
A|-1--------------3--5--3-------------------|
E|-1--------------1--3--1-------------------|

F5                                E5
   But I'll take my time anywhere
                               Bb5
I'm free to speak my mind anywhere

And I'll redefine anywhere
A5
Anywhere I roam
  G5
Where I lay my head is home
 C5/G
Carved upon my stone
    B5/F#
My body lie
      Bb5/F      
But still I roam

( F5  G5  F5 )

[Final]

[Tab - Final]

     P.M.                      .
E|----------------------------------------------------|
B|----------------------------------------------------|
G|----------------------------------------------------|
D|-2------------------------9-------------------------|
A|-2-----/7-7h8-7h8p7h8p7h8-7-----10-10/12--8---------|
E|-0--0---------------------0--0----------------------|

     P.M.
E|----------------------------------------------------|
B|----------------------------------------------------|
G|----------------------------------------------------|
D|-9--------------------------------------------------|
A|-7-----7-7h8-7h8p7h8p7h8--7---8---9---10---5--6--7-8|
E|-0--0---------------------5---6---7----8------------|

                     P.M.
E|----------------------------------------------------|
B|----------------------------------------------------|
G|----------------------------------------------------|
D|-----------------9----------------------------------|
A|-7-8-7h8p7h8p7h8-7-----10-10/12--8------------------|
E|-----------------0--0-------------------------------|

     P.M.
E|----------------------------------------------------|
B|----------------------------------------------------|
G|----------------------------------------------------|
D|-9--------------------------------------------------|
A|-7-----7-7h8-7h8p7h8p7h8--7---8---9---10---5--6--7-8|
E|-0--0---------------------5---6---7----8------------|

                     P.M.
E|----------------------------------------------------|
B|----------------------------------------------------|
G|----------------------------------------------------|
D|-----------------9----------------------------------|
A|-7-8-7h8p7h8p7h8-7-----10-10/12--8------------------|
E|-----------------0--0-------------------------------|

     P.M.
E|----------------------------------------------------|
B|----------------------------------------------------|
G|----------------------------------------------------|
D|-9--------------------------------------------------|
A|-7-----7-7h8-7h8p7h8p7h8--7---8---9---10---5--6--7-8|
E|-0--0---------------------5---6---7----8------------|

                     P.M.
E|----------------------------------------------------|
B|----------------------------------------------------|
G|----------------------------------------------------|
D|-----------------9----------------------------------|
A|-7-8-7h8p7h8p7h8-7-----10-10/12--8------------------|
E|-----------------0--0-------------------------------|

     P.M.
E|----------------------------------------------------|
B|----------------------------------------------------|
G|----------------------------------------------------|
D|-9--------------------------------------------------|
A|-7-----7-7h8-7h8p7h8p7h8--7---8---9---10---5--6--7-8|
E|-0--0---------------------5---6---7----8------------|

                     P.M.
E|----------------------------------------------------|
B|----------------------------------------------------|
G|----------------------------------------------------|
D|-----------------9----------------------------------|
A|-7-8-7h8p7h8p7h8-7-----10-10/12--8------------------|
E|-----------------0--0-------------------------------|

     P.M.
E|----------------------------------------------------|
B|----------------------------------------------------|
G|----------------------------------------------------|
D|-9--------------------------------------------------|
A|-7-----7-7h8-7h8p7h8p7h8--7---8---9---10---5--6--7-8|
E|-0--0---------------------5---6---7----8------------|

E5     A5  Bb5 B5  C5      E5
   Where__ver  I  may roam
    A5  Bb5 B5  C5      E5
Where__ver  I  may roam
    A5  Bb5 B5  C5      E5
Where__ver  I  may roam
    A5  Bb5 B5  C5      E5
Where__ver  I  may roam
    A5  Bb5 B5  C5        E5
Where__ver  I  may wander

Wander, wander
00:00 / 00:00
Outros vídeos desta música
Repetir
Outros vídeos desta música
134.799 exibições
    • ½ Tom
    • Am
    • Bbm
    • Bm
    • Cm
    • C#m
    • Dm
    • Ebm
    • Em
    • Fm
    • F#m
    • Gm
    • G#m
  • Adicionar à lista

Afinação da cifra

Afinador online

    0 comentários

    Ver todos os comentários

    Entre para o Cifra Club PRO

    Tenha acesso a benefícios exclusivos no App e no Site

    • Chega de anúncios

    • Mais recursos no app do Afinador

    • Atendimento Prioritário

    • Aumente seu limite de lista

    • Ajude a produzir mais conteúdo

    00:00 / 00:00
    Capítulos
    • Apresentação
    • Regulando os Timbres dos Pedáis
    • Ensinando a Guitarra 1 da Introdução 1
    • Ensinando a Guitarra 2 da Introdução 1
    • Ensinando a Introdução 2
    • Ensinando a Introdução 3
    • Dicas Iniciais
    • Ensinando a Primeira e Segunda Partes
    • Ensinando o Refrão
    • Ensinando a Ponte
    • Tocando o Solo
    • Ensinando o Solo
    • Encerramento e Dicas Finais

    Cifra Club Pro

    Aproveite o Cifra Club com benefícios exclusivos e sem anúncios
    Cifra Club Pro
    Aproveite o Cifra Club com benefícios exclusivos e sem anúncios
    OK