Notificações Amigos pendentes

      Metallica

      The Unforgiven II

      326.199 exibições
      Tom: C
      Intro 4x: Am  C  G  Em
      
      Am     C       G
      Lay beside me,
      Em                   Am
      Tell me what they've done,
                    C             G
      And speak the words I wanna hear
         Em             Am
      To make my demons run.
                  C          G
      The door is locked now,
               Em               Am
      But it's opened if you're true.
                 C              G
      If you can understand the me,
                 Em             ( Am  C  G  Em ) (2x)
      Then I can understand the you.
      
      Am   C        G
      Lay beside me,
      Em            Am
      Under wicked skies.
                      C            G
      Through back of day, dark of night,
         Em             Am
      We share this paralyse.
                     C     G
      The door cracks open,
                  Em             Am
      But there's no sun shining through.
                  C                G
      Black heart scarring darker still,
            Em              Dm
      Still no sun shining through,
         F              G
      No no sun shining through,
         F           Am
      No no sun shining.
      
      Refrão:
      Am              G
      What I've felt, what I've known,
      C              E7
      Turn the pages turn the stone
        Am                     G           C   E7
      Behind the door should I open it for you?
      Am              G
      What I've felt, what I've known
      C                 E7
      Sick and tired I stand alone,
            Am                          G                 C
      Could you be there? Cause I'm the one who waits for you.
                E7             ( Am  C  G  Em ) (2x)
      Or are you unforgiven, too?
      
      Am         C       G
      Come lay beside me,
      Em                Am
      This won't hurt I swear.
                   C                 G
      She loves me not she loves me still,
                 Em           Am
      But she'll never love again.
                C
      She lay beside me,
      G          Em                Am
      But she'll be there when I'm gone.
                   C               G
      Black heart scarring darker still,
                  E7                Dm
      Yeah she'll be there when I'm gone.
                 F                 G
      Yes she'll be there when I'm gone,
           F              Am
      Dead sure she'll be there.
      
      (Refrão)
      
      Solo 2x: Am  C  G  Em
      
      Am    C       G
      Lay beside me,
      Em                Am
      Tell me what I've done.
                  C                  G
      The door is closed so are your eyes,
          Em            Dm
      But now I see the sun,
          F         G        E7
      Now I see the sun, yes now I see it.
      
      (Refrão)
      
      Am              G
      What I've felt, what I've known,
      C              E7
      Turn the pages turn the stone
        Am                     G           C   E7
      Behind the door should I open it for you?
      Am             C G             E7
      What I've felt, what I've known
      Am                    C             G
      I take this key and I bury it in you
                     E7
      Because you're unforgiven too.
      Am     G         C
      Never me never me
                     D                  G
      Because you're unforgiven too.
      Intro:
      
      E|---------------------------------------------------------
      B|---------------------------------------------------------
      G|---------------------------------------------------------
      D|--7--7/9-9/10-12--14-12-10-12/10--7/9-9/10-12--12-9/10-9-
      A|--7--x-x-x-x--x---x--x--x--x-x---x-x-x--x--x---x-x--x-x--
      E|--5--5/7-7/8--10--12-10-8--10/8---5/7-7/8--10--10-7/8-7--
      
      
      E|----------------------
      B|----------------------
      G|----------------------
      D|--2---5------5-----2--
      A|--0---3------5-----2--
      E|-------------3-----0--
      
      
      Verso:
      
      E|---------0---------------------3-3--------------------
      B|----------1----------------0h1-3-3--3/5/3-1-0---1/3/1-
      G|------2-----------------0-----------------------2/4/2-
      D|----2-----------------2-------------------------------
      A|--0------------0-2-3----------------------------------
      E|-----------------------------------3----------0-------
      
      "Lay beside me, tell me what they've done"
      
      
      E|-------1--------------------------------0--
      B|--------3-------------------------------1--
      G|-----2----2----0----------0-------0-----2--
      D|---0-------------3------0-----------3---2--
      A|--------------3-------2---------3-------0--
      E|------------1-------3---------1------------
      
      
      Ponte:
      "But there's no sun shining through."
      
      E|------------------------------------------
      B|--0--------------------------------------0
      G|--4--5-5--5---4-4--4--7-7--7-7-7--5-5-5--4
      D|--7--7-7--7---5-5--5--5-5--5-5-5--5-5-5--5
      A|--7--7-7--7---2-2--2----------------------
      E|------------------------------------------
      
      
      E|---------------------------------------------
      B|--0------------------------------------------
      G|--4--5-5--5---4-4--4--7-7--7-7-7--7-5-4-5-4--
      D|--7--7-7--7---5-5--5--5-5--5-5-5------------7
      A|--7--7-7--7---2-2--2-------------------------
      E|---------------------------------------------
      
      "What I've felt, what I've known"
      
      
      E|------------------------------------
      B|------------------------------------
      G|------2--------5-----------------9--
      D|----2---2----5---5------5------9---9
      A|--0--------3----------5---5--7------
      E|--------------------3---------------
      
      
      E|------------------------------------
      B|------------------------------------
      G|--4-2-4-2--7-5-7-5-----------9-7-9-7
      D|--------------------7-5-7-5---------
      A|------------------------------------
      E|------------------------------------
      
      "Come lay beside me" (Segundo verso)
      Tocado com echo e chorus.
      
      Solo:               full          full    full   full   full
      
      E|---------------------------------------------15-----15-----15--15-|
      B|-----------------------12--15--12----12--15-----15------15--------|
      G|--7-5h7p5-4-5------/14------------14------------------------------|
      D|--------------5---------------------------------------------------|
      A|------------------------------------------------------------------|
      E|------------------------------------------------------------------|
      
                   full            full            full
      
      E|-----17--------------17--------------17---------17---------|
      B|-/17----17--20---/17----17--20---/17----17--20-----20--17--|
      G|-----------------------------------------------------------|
      D|-----------------------------------------------------------|
      A|-----------------------------------------------------------|
      E|-----------------------------------------------------------|
      
      
      E|-------------------------------------------------------------------------|
      B|-------------------19-17----19-17----19-17----19-17----19-17----19-17----|
      G|-19--17--19--17----19-17----19-17----19-17----19-17----19-17----19-17----|
      D|----------------19-------19-------19-------19-------19-------19-------19-|
      A|-------------------------------------------------------------------------|
      E|-------------------------------------------------------------------------|
      
      
      E|--------------------------------------------|
      B|-17----------------------19-17--------------|
      G|----20-17-19-17-19-17----19-17--------------|
      D|----------------------19-------19-----------|
      A|--------------------------------------------|
      E|--------------------------------------------|
      
      
      
      (Refrão 2x)
        Composição: James Hetfield / Kirk Hammett / Lars UlrichColaboração e revisão:
        • Neto
        • Babal
        • lucas_punk
        • basquetao
        • +2

        Comentários 43

        140 .
        • Anderson Anderson: Em 26/02/2016 15:50

          Esta cifra está incorreta.
          Nos versos onde aparece "Em" deve-se usar o "E".
          No Refrão na parte "What I've felt, what I've known.." deve-se

        • Cassiano Cassiano: Em 03/06/2015 19:25

          AULA PLEAS!!

        • Paulo Paulo: Em 25/05/2015 14:47

          ae não tem como fazer a video aula ???

        • Miguel Ángel Miguel Ángel: Em 10/09/2014 01:47

          La afinación de la guitarra debe de ir medio tono abajo (Eb Bb Gb Db Ab Eb)

        • sergio eduardo sergio eduardo: Em 15/08/2014 11:29

          devia ter pelos menos a tab do dedilhado da intro

        • Anderson Anderson: Em 12/08/2014 21:12

          meio tom abaixo galera

        • Arnold Layne Arnold Layne: Em 29/06/2014 17:05

          Os tempo dos acordes do refrão é mais complexo... e o C é C9... x32033. SEMPRE

        • juninhotc2012 juninhotc2012: Em 28/06/2014 16:32

          paulinho da viola q compos? parabens ae meu..

        • Vinicius Vinicius: Em 08/03/2014 20:09

          Ta certo Matheus esses caras ficam fazendo video aulas desses hino de corno(sertanejo) em vez de fazer de música de verdade

        • Matheus Matheus: Em 22/01/2014 10:23

          alias sertanejo e uma merda cade as video aulas de heavy metal e de rock n roll isso n vai ficar assim e mais facil ver em outro site

        140 cancelar

        conseguiu tocar?

        • •••

        covers

        Grave um vídeo tocando The Unforgiven II e mande pra gente!

        Ex.: http://www.youtube.com/watch?v=0IvSvIwGdwk
        ver covers de outras músicas »
        0:00 / 0:00

        Capítulos

          1 versão de baixo exibições contribuição e correção
          1 versão de bateria exibições contribuição e correção
          2 versões de Guitar Proformatodownloadscontribuição
          1 versão de partiturasformatodownloadscontribuição
          play/pausefechar subir/descer velocidade
          6ª corda E5ª corda A4ª corda D3ª corda G2ª corda B1ª corda E
            acordes
            publicidade
            fechar
            ok