Cifra Club

Aprenda

Fade To Black

Metallica

Cifra: Principal (violão e guitarra)
Já pensou em usar uma coleção de roupas do Cifra Club? Responda as perguntas abaixo e nos ajude nessa missão! →
tom: G
Introdução - Parte 1:

Violão 5x:
E|---------------------------------------------------|
B|---------------------------------------------------|
G|-----0---------------0-----------------------------|
D|---4---4---4---4---4---4---4---4-------------------|
A|-2-------2---5---0-------0---5---------------------|
E|---------------------------------------------------|

E|---------------------------------------------------|
B|---------------------------------------------------|
G|-----0---------------2-----------------------------|
D|---4---4---4---4---2---2---2---2-------------------|
A|-2-------2---5---4-------4---0---------------------|
E|---------------------------------------------------|

(Final da Parte 1 da Introdução)
E|---------------------------------------------------|
B|-------------------------------1-3-----------------|
G|----------------------1------1---------------------|
D|---0---------2------2---2--------------------------|
A|-----3-----2---2--2--------------------------------|
E|-1-----1-4-----------------0-----------------------|

(Solo de Guitarra)
E|---------------------------------------------------|
B|-------------7-8-8/10~--8-10-10/12--10--8-8h10~----|
G|----7-11-------------------------------------------|
D|-/9------9~----------------------------------------|
A|---------------------------------------------------|
E|---------------------------------------------------|

E|---------------------------------------------------|
B|-12p10p8\7-8p7---7--7h8--7-----7-------------------|
G|---------------9------------9-----9--7-------------|
D|-----------------------------------------7--9~-----|
A|---------------------------------------------------|
E|---------------------------------------------------|

E|---------------------------------------------------|
B|-----------8-7~--8/10~-----------------------------|
G|-7p6~--7p6-----------------------------------------|
D|---------------------------------------------------|
A|---------------------------------------------------|
E|---------------------------------------------------|

E|---14-19p14-------15p14----------------------------|
B|15----------15----------15----17p15p14-------------
G|---------------16----------14----------16-14b16--14|
D|---------------------------------------------------|
A|---------------------------------------------------|
E|---------------------------------------------------|

E|---------------------------------------------------|
B|------------------------14-15-14h15p14----14-15-14-|
G|-14h16------------14-16----------------16----------|
D|-------14~--14h16----------------------------------|
A|---------------------------------------------------|
E|---------------------------------------------------|

E|-19-17-15~--15-17-14~---------14-15-14~------------|
B|----------------------15-----------------15--------|
G|-------------------------16~----------------14~----|
D|---------------------------------------------------|
A|---------------------------------------------------|
E|---------------------------------------------------|

E|-14-15-14~-----17--15--14~-------------------------|
B|------------15-------------------------------------|
G|---------------------------------------------------|
D|---------------------------------------------------|
A|---------------------------------------------------|
E|---------------------------------------------------|

E|-------------------------------------13-15-13h15p13|
B|----------------------------13-15-17---------------|
G|-------------------12-14-16------------------------|
D|----------12-14-15---------------------------------|
A|-12-14-15------------------------------------------|
E|---------------------------------------------------|

E|----17~~-------------------------------------------|
B|-15------------------------------------------------|
G|---------------------------------------------------|
D|---------------------------------------------------|
A|---------------------------------------------------|
E|---------------------------------------------------|

Introdução - Parte 2 - 4x: Am  C  G5  Em

(Violão)
   Am                  C
E|-----------0----------------0------------|
B|-0h1---------------1-1--1-----------2----|
G|-2----2--------0h2---0----------0h2------|
D|-2------2----2-------2----2---2----------|
A|-0-------------------3-------------------|
E|-----------------------------------------|

   G5               Em
E|--------3--------------------------------|
B|----3---------------------0--1/3---------|
G|-0----------0h2-0-0-------0--2/4---------|
D|------0---0-------2---2------------------|
A|------------------2-2---2----------------|
E|-3----------------0----------------------|

   Am                  C
E|-----------0----------------0------------|
B|-0h1---------------1-1--1-----------2----|
G|-2----2--------0h2---0----------0h2------|
D|-2------2----2-------2----2---2----------|
A|-0-------------------3-------------------|
E|-----------------------------------------|

(Guitarra)
E|-------------------10--------------------|
B|-10--------8-----8------8----------------|
G|-9-------9-----7--------9----------------|
D|------10----------------9----------------|
A|-----------------------------------------|
E|-----------------------------------------|


Primeira Parte:

Am                       C
   Life, it seems, will fade away
G5                 Em
   Drifting further every day
Am                  C
   Getting lost within myself
G5                  Em
   Nothing matters, no one else
Am                  C
   I have lost the will to live
G5                Em
   Simply nothing more to give
Am                   C
   There is nothing more for me
G5                 E5
   Need the end to set me free

Interlúdio - Parte 1 - 2x: A5  C5  A5  D5  E5  ( C5  B5 )
                           A5  C5  A5  ( G5  F#5  E5 )
          P.M . .        . . . .
E|-----------------------------------------|
B|-----------------------------------------|
G|-----------------------------------------|
D|-2--2-2---------5--5-5---------2--2-2----|
A|-0--0-0-------5-3--3-3-------5-0--0-0----|
E|--------0-0-3----------0-0-3-------------|

               P.M . .
E|-----------------------------------------|
B|-----------------------------------------|
G|-----------------------------------------|
D|-7--9--9-9-9-----5-4---------------------|
A|-5--7--7-7-7-----3-2---------------------|
E|-------------0-0-------------------------|

          P.M . .        . . . .
E|-----------------------------------------|
B|-----------------------------------------|
G|-----------------------------------------|
D|-2--2-2---------5--5-5---------2--2-2----|
A|-0--0-0-------5-3--3-3-------5-0--0-0----|
E|--------0-0-3----------0-0-3-------------|

   P.M
E|-----------------------------------------|
B|-----------------------------------------|
G|-----------------------------------------|
D|-----------------------------------------|
A|-5-4-2-----------------------------------|
E|-3-2-0-----------------------------------|

Interlúdio - Parte 2: Am  C  G5  Em

E|---------------------------------------------------|
B|-/10~--10-12-13~--13/15\13p12----------------------|
G|------------------------------12~--12/14\9~--------|
D|---------------------------------------------------|
A|---------------------------------------------------|
E|---------------------------------------------------|

E|---------------------------------------------------|
B|-5/7-7/8-8/10~--10-12-13~--15b17r15--13--15b17-----|
G|---------------------------------------------------|
D|---------------------------------------------------|
A|---------------------------------------------------|
E|---------------------------------------------------|

E|---------------------------------------------------|
B|-15b17--15b17--15b17--17~--------------------------|
G|---------------------------------------------------|
D|---------------------------------------------------|
A|---------------------------------------------------|
E|---------------------------------------------------|


Segunda Parte:

Am                      C
   Things not what they used to be
G5               Em
   Missing one inside of me
Am                     C
   Deathly lost, this can't be real
G5                   Em
   Cannot stand this hell I feel
Am               C
   Emptiness is filling me
G5                Em
   To the point of agony
Am                   C
   Growing darkness taking dawn
G5               E5
   I was me, but now he's gone

Interlúdio 1 - Parte 1 - 2x: A5  C5  A5  D5  E5  ( C5  B5 )
                             A5  C5  A5  ( G5  F#5  E5 )

Terceira Parte:
E|-----------------------------------------|
B|-----------------------------------------|
G|-----------------------------------------|
D|-7/9--9-9--7/9--9-12-11--7--7-7----------|
A|-5/7--7-7--5/7--7-10-9---5--5-5----------|
E|-----------------------------------------|

   P.M .  . . .  . . .  . . .
E|-----------------------------------------|
B|-----------------------------------------|
G|----------------------------4------------|
D|-9-9-9--7-7-7--5-5-5--4-4-4--------------|
A|-----------------------------------------|
E|-----------------------------------------|


No one but me can save myself, but it's too late
Now I can't think, think why I should even try
Interlúdio 2:
E|-----------------------------------------|
B|-----------------------------------------|
G|-----------------------------------------|
D|-----------------------------------------|
A|-9/10--10-10~-9/10--10-14-12~-9--9-9-----|
E|-----------------------------------------|

   P.M.  .   .  .  .   . . .  . . .
E|-----------------------------------------|
B|-----------------------------------------|
G|----------------------------------7------|
D|-12-12-12--11-11-11--9-9-9--7-7-7--------|
A|-----------------------------------------|
E|-----------------------------------------|

Quarta Parte:
E|-----------------------------------------|
B|-----------------------------------------|
G|-----------------------------------------|
D|-7/9--9-9--7/9--9-12-11--7--7-7----------|
A|-5/7--7-7--5/7--7-10-9---5--5-5----------|
E|-----------------------------------------|

   P.M .  . . .  . . .  . . .
E|-----------------------------------------|
B|-----------------------------------------|
G|----------------------------4------------|
D|-9-9-9--7-7-7--5-5-5--4-4-4--------------|
A|-----------------------------------------|
E|-----------------------------------------|


Yesterday seems as though it never existed
Death greets me warm, now I will just say goodbye
Interlúdio 3:

   P.M . .    . . . .       . . . .
E|-----------------------------------------|
B|-----------------------------------------|
G|-----------------------------------------|
D|---------9----------12-11---------7------|
A|---------7----------10-9----------5------|
E|-0-0-0-0----0-0-0-0-------0-0-0-0--------|

   P.M .  . . .  . . .  . . .
E|-----------------------------------------|
B|-----------------------------------------|
G|----------------------------4------------|
D|-9-9-9--7-7-7--5-5-5--4-4-4--------------|
A|-----------------------------------------|
E|-----------------------------------------|

Base do Solo Final:

(Guitarra 1)
               P.M . .             . . . .
E|---------------------------------------------------|
B|---------------------------------------------------|
G|---------------------------------------------------|
D|----4--5--4--2-0--------4--5--4--2-0--------4--5--4|
A|-5---------------4-0-4---------------4-0-2---------|
E|---------------------------------------------------|

   P.M . .
E|---------------------------------------------------|
B|---------------------------------------------------|
G|---------------------------------------------------|
D|-2-0--------4--5--5/7--5-4-2-4---------------------|
A|-----4-0-4-----------------------------------------|
E|---------------------------------------------------|

(Guitarra 2)
               P.M . .             . . . .
E|---------------------------------------------------|
B|---------------------------------------------------|
G|---------------------------------------------------|
D|----4--2----------------4--2----------------4--2---|
A|-2--------5--4-2-0------------5--4-2-0------------5|
E|-------------------2-5-----------------2-3---------|

   P.M . .             . . . .
E|---------------------------------------------------|
B|---------------------------------------------------|
G|---------------------------------------------------|
D|------------4--2-----------------------------------|
A|-4-2-0------------5--4-2-0-------------------------|
E|-------2-5-----------------2-----------------------|

Solo:

(Parte 1)
E|---------------------------------------------------|
B|---------------------------------------------------|
G|-------7-9b11--9b11--9b11--9b11r9p7-9~-------------|
D|-/9--9---------------------------------------------|
A|---------------------------------------------------|
E|---------------------------------------------------|

(Parte 2)
E|---------------------------------------------------|
B|7h8--7-----8--7-----7h8--7-----10~-8--10--10/12--10
G|--------7--------7----------7----------------------|
D|---------------------------------------------------|
A|---------------------------------------------------|
E|---------------------------------------------------|

E|---------------------------------------------------|
B|-8--8h10--8--7--7h8--7-----7-----------------------|
G|------------------------9-----9--7-----------------|
D|------------------------------------7~-9-9~--------|
A|---------------------------------------------------|
E|---------------------------------------------------|

(Parte 3)
E|---------------------------------7-----------7-----|
B|-------------------------------7---10p7--------10p7|
G|----7-9-9b11r9p7-9-7~---7-9b11----------9b11-------|
D|-/9-------------------9----------------------------|
A|---------------------------------------------------|
E|---------------------------------------------------|

E|------7-----------7-----------7-----------7--------|
B|--------10p7--------10p7--------10p7--------10p7---|
G|-9b11--------9b11--------9b11--------9b11----------|
D|---------------------------------------------------|
A|---------------------------------------------------|
E|---------------------------------------------------|

E|------7-----------7-10p7----7-10p7-10p7----7-10p7--|
B|--------10p7-------------10-------------10---------|
G|-9b11--------9b11----------------------------------|
D|---------------------------------------------------|
A|---------------------------------------------------|
E|---------------------------------------------------|

E|-10p7----7-10p7----7-10p7-10p7----7-10p7-10p7----7-|
B|------10--------10-------------10-------------10---|
G|---------------------------------------------------|
D|---------------------------------------------------|
A|---------------------------------------------------|
E|---------------------------------------------------|

E|10b12--10b12r-10-8-7-8-7----7----------------------
B|-------------------------10---10-8-10-8-7-8-7---7--|
G|----------------------------------------------9---9|
D|---------------------------------------------------|
A|---------------------------------------------------|
E|---------------------------------------------------|

E|---------------------------------------------------|
B|---------------------------------------------------|
G|7--------------------------------------------------
D|--7~-9-9~------------------------------------------|
A|---------------------------------------------------|
E|---------------------------------------------------|

(Parte 4)
E|---------------------------------------------------|
B|-8p7---7-8-10-10/12-10-8-7-------------8p7---7-8-10|
G|-----9---------------------9-7-------------9-------|
D|-------------------------------7~-9-9~-------------|
A|---------------------------------------------------|
E|---------------------------------------------------|

E|-7-8-7~--------------------------------------------|
B|---------------------------------------------------|
G|---------------------------------------------------|
D|---------------------------------------------------|
A|---------------------------------------------------|
E|---------------------------------------------------|

(Parte 5)
E|-7-8-10-8-7-8-7----7-------------------------------|
B|----------------10---10-8-10-8-7-8-7---7-----------|
G|-------------------------------------9---9-7-9-7-6-|
D|---------------------------------------------------|
A|---------------------------------------------------|
E|---------------------------------------------------|

E|-----------------------7---------------------7-----|
B|----------------7-8-10---10-8-7-8p7---7-8-10---10-8|
G|7-6-------6-7-9---------------------9--------------
D|----9-7-9------------------------------------------|
A|---------------------------------------------------|
E|---------------------------------------------------|

E|---------------------------------------------------|
B|-7-8p7---------------------------------------------|
G|---------------------------------------------------|
D|---------------------------------------------------|
A|---------------------------------------------------|
E|---------------------------------------------------|

(Parte 6)
E|---------------------------------------------------|
B|---------------------------------------------------|
G|-9b11--9b11--9b11--9b11--b11-b11-b11...------------|
D|---------------------------------------------------|
A|---------------------------------------------------|
E|---------------------------------------------------|

           P.M   . .     . .     . .   . .
E|---------------------------------------------------|
B|-------------7-----7-7-----7-7-----7-----7---------|
G|-b11r9p7-----7-----7-7-----7-7-----7-----7---------|
D|---------9-9---9-9-----9-9-----9-9---9-9-----------|
A|---------------------------------------------------|
E|---------------------------------------------------|

E|---------------------------------------------------|
B|-10b12--10b12--10b12~--7h10p7---7-8-7h8p7----------|
G|------------------------------9-----------9-7---7--|
D|----------------------------------------------9----|
A|---------------------------------------------------|
E|---------------------------------------------------|

E|---------------------------------------------------|
B|---------------------------------------------------|
G|---7-9-7---7---------------------------------------|
D|-9-------9---9-7-9-7---7---------------------------|
A|---------------------9---9-7-9-7----7--------------|
E|---------------------------------10---10-7-10~-----|

(Parte 7)
E|----12-15p12----12-15p12-14p12----12-15p12-14p12---|
B|-12----------12----------------12----------------12|
G|---------------------------------------------------|
D|---------------------------------------------------|
A|---------------------------------------------------|
E|---------------------------------------------------|

E|-12-15p12----12-15p12-14p12----12-15p12-14p12----12|
B|----------12----------------12----------------12---|
G|---------------------------------------------------|
D|---------------------------------------------------|
A|---------------------------------------------------|
E|---------------------------------------------------|

(Parte 8)
E|-17p14----14-17p14----14-17p14----14-17p14----14---|
B|-------15----------15----------15----------15------|
G|---------------------------------------------------|
D|---------------------------------------------------|
A|---------------------------------------------------|
E|---------------------------------------------------|

E|-17p14----14-17p14----14-17p14----14-17p14----14---|
B|-------15----------15----------15----------15------|
G|---------------------------------------------------|
D|---------------------------------------------------|
A|---------------------------------------------------|
E|---------------------------------------------------|

E|-19p15----15-19p15-17p15----15-19p15-17p15----15---|
B|-------17----------------17----------------17------|
G|---------------------------------------------------|
D|---------------------------------------------------|
A|---------------------------------------------------|
E|---------------------------------------------------|

E|-19p15----15-19p15-17p15----15-19p15-17p15----15---|
B|-------17----------------17----------------17------|
G|---------------------------------------------------|
D|---------------------------------------------------|
A|---------------------------------------------------|
E|---------------------------------------------------|

E|-21p17----17-21p17----17-21p17----17-21p17----17---|
B|-------19----------19----------19----------19------|
G|---------------------------------------------------|
D|---------------------------------------------------|
A|---------------------------------------------------|
E|---------------------------------------------------|

E|-21p17----17-21p17----17-21p17----17-21p17----17---|
B|-------19----------19----------19----------19------|
G|---------------------------------------------------|
D|---------------------------------------------------|
A|---------------------------------------------------|
E|---------------------------------------------------|

(Parte 9)
E|22b24--22b24--22b24--22b24--22b24-22b24-22b24-22b24
B|---------------------------------------------------|
G|---------------------------------------------------|
D|---------------------------------------------------|
A|---------------------------------------------------|
E|---------------------------------------------------|

E|-19-22-20-19-20-19----19---------------------------|
B|-------------------22----22-20-22-20-19-20-19----19|
G|----------------------------------------------21---|
D|---------------------------------------------------|
A|---------------------------------------------------|
E|---------------------------------------------------|

E|---------------------------------------------------|
B|---------------------------------------------------|
G|-21-19-21-19-18-19-18----18------------------------|
D|----------------------21----21-19-21-19-17-19-17---|
A|-------------------------------------------------21|
E|---------------------------------------------------|

E|---------------------------------------------------|
B|---------------------------------------------------|
G|---------------------------------------------------|
D|-17------------------------------------------------|
A|----21-19-21-19-17-19-17-16-17~~--19b21-b21-b21...-|
E|---------------------------------------------------|

(Parte 10)
E|-------7---------7---------7---------7---------7---|
B|-10b12---7-10b12---7-10b12---7-10b12---7-10b12---7-|
G|---------------------------------------------------|
D|---------------------------------------------------|
A|---------------------------------------------------|
E|---------------------------------------------------|
Composição de Cliff Burton / James Hetfield / Kirk Hammett / Lars Ulrich
Colaboração e revisão:
1.227.996 exibições
    • ½ Tom
    • A
    • Bb
    • B
    • C
    • Db
    • D
    • Eb
    • E
    • F
    • F#
    • G
    • Ab
  • Adicionar à lista

    0 comentários

    Ver todos os comentários

    Conseguiu tocar?

    199 Tocaram 13 Ainda não

    Grave um vídeo tocando Fade To Black e nos envie!

    00:00 / 00:00
    Outros vídeos desta música
    Repetir Qualidade Automático
    Outros vídeos desta música
    00:00 / 00:00
    Automático
    Capítulos
    • Início
    • Tocando a música
    • Configuração dos Efeitos
    • Tocando Introdução - Parte 1
    • Ensinando Introdução - Parte 1 (Violão)
    • Ensinando Solo da Introdução
    • Acordes da Introdução - Parte 2 (Violão)
    • Tocando Introdução - Parte 2
    • Ensinando Introdução - Parte 2 (Violão)
    • Ensinando Introdução Parte 2 - (Guitarra)
    • Acordes da Primeira Parte (Guitarra)
    • Tocando Primeira Parte
    • Acordes do Interlúdio 1 (Guitarra)
    • Tocando Interlúdio 1 - Parte 1
    • Ensinando Interlúdio 1 - Parte 1
    • Tocando Interlúdio 1 - Parte 2
    • Ensinando Interlúdio 1 - Parte 2 (Guitarra 1)
    • Ensinando Interlúdio 1 - Parte 2 (Guitarra 2)
    • Tocando Segunda e Terceira Parte
    • Ensinando Terceira Parte
    • Ensinando Interlúdio 2
    • Tocando Quarta Parte e Interlúdio 3
    • Ensinando Interlúdio 3
    • Tocando Solo Final
    • Ensinando Base do Solo (Guitarra 1)
    • Ensinando Base do Solo (Guitarra 2)
    • Ensinando Solo (Parte 1)
    • Ensinando Solo (Parte 2)
    • Ensinando Solo (Parte 3)
    • Ensinando Solo (Parte 4)
    • Ensinando Solo (Parte 5)
    • Ensinando Solo (Parte 6)
    • Ensinando Solo (Parte 7)
    • Ensinando Solo (Parte 8)
    • Ensinando Solo (Parte 9)
    • Ensinando Solo (Parte 10)
    • Ensinando Solo (Parte 11)
    • Ensinando Solo (Parte 12)
    • Tocando Solo (Lento)
    • Encerramento

    Cifra Club Pro

    Aproveite o Cifra Club com benefícios exclusivos e sem anúncios
    Cifra Club Pro
    Aproveite o Cifra Club com benefícios exclusivos e sem anúncios
    OK