Cifra Club

Para o Mundo Ouvir

Ministério Além do Véu

Cifra: Principal
exibições 11.458
Tom: A#
riff 1
E|---x-x-----------------------x-x---------------------... 
B|---x-x-----------------------x-x---------------------... 
G|---x-x-----------------------x-x---------------------... 
D|---5-5--5-x-5-3---3h5---5-5--5-x-5-3---3h5... 
A|---5-5------------5---------5-5-----------5---------... 
E|---3-3----------------------3-3---------------------... 

riff 2
E|--x-x-------------------x-x-------------------------... 
B|--x-x-------------------x-x-------------------------... 
G|--x-X------------------x-x-------------------------... 
D|--8-8-8-8-7h8p7---8-8-8-8-7h8p7----------... 
A|--8-8--------------5--8-8---------------5--------... 
E|--6-6------------------6-6------------------------... 



Gm riff 1                                           Bb riff 2
Sentir teu coração, olhar pelos teus olhos
Gm riff 1                                                   Bb  riff 2
Ser tuas mãos e pés, levar a salvação às vidas

Pré-Refrão:
Eb         Gm
Renda-se, renda-se
F                                                        Cm            Bb/D
Deixe a luz de Jesus Cristo, nesta noite entrar  oh oh

Eb              Gm
Renda-se, renda-se
F
Que o poder das trevas trema com nosso louvor

Bb                                                 F/A
Até que o mundo inteiro ouça o Senhor
Gm                                                Eb
Erguemos o seu nome hoje em alto som
Bb                                                    F/A
Como vozes no deserto, estamos a clamar
              Gm                        Dm                   (Eb) na seg parte
O dia se aproxima, vou gritar para mundo ouvir

Verso 1
Gm riff1                                                              Bb riff 2
Senhor vem com o seu poder os demônios derrotar
Gm riff1                                                          Bb riff 2
Nação santa do Senhor, a Ti erguemos um altar

Eb    Gm   Bb                                     Eb
Ooo, Ooo, vou gritar para o mundo ouvir
Eb    Gm  Bb                                       Eb
Ooo, Oo---o, vou gritar para o mundo ouvir

Ponte:
Eb                                         Bb
Quero ser tuas mãos e pés, quero levar salvação
Gm                               F
Ver o preso ser liberto: para o mundo ouvir!
Eb                                   Bb
Oro pra que seja assim: mais de Deus menos de mim
Gm                                       F
Que minha vida seja em louvor a ti
Acordes para:
    Colaboração e revisão:
    • diego silva
    • Sergio

    0 comentários

      mostrar mais comentários

      Conseguiu tocar?

      0tocaram0ainda não

      Grave um vídeo tocando Para o Mundo Ouvir e mande pra gente!

      00:00 / 00:00
      outros vídeos desta música
      repetirqualidadeautomática
      Outro vídeos desta música
        00:00 / 00:00
        automática
        OK