Cifra Club

Aprenda

Famous Last Word

My Chemical Romance

Cifra: Principal (violão e guitarra)
Tom: C
       D5
Now I know
              C5       Bb5
that I can't make you stay
             A5    G5
But where's your heart?
     A5           Bb5
But where's your heart?
         C5
But where's your...
 D5                          C5  Bb5
And I know there's nothing I can say
          A5   G5
To change that part
    A5        Bb5
To change that part
   C5
To change...

E |------------------------------|
B |------------------------------|
G |------------------------------|2x
D |-7-7----3------7-7----3-5-3-7-|
A |-5-5-3-5-5-3-3h5-5-3-5------5-|
E |------------------------------|

   D5                      C5   Bb5
So many bright lights that cast a shadow
     A5   G5
But can I speak
      A5                   Bb5
Well, is it hard understanding?
C5
I'm incomplete
D5               C5  Bb5
A life that's so demanding
      A5 G5
I get so weak
   A5            Bb5
A love that's so demanding
 C5
I can't speak

(Refão)

F5                         F5/E
I am not afraid to keep on living
D5                              C5    Bb5
I am not afraid to walk this world alone
                         C5
Honey, if you stay, I'll be forgiven
Bb5                       C5
Nothing you can say could stop me going home

E |------------------------------|
B |------------------------------|
G |------------------------------|2x
D |-7-7----3------7-7----3-5-3-7-|
A |-5-5-3-5-5-3-3h5-5-3-5------5-|
E |------------------------------|

|-------------------------------|
|--------6-------------6-8-6----|
|-7-7-5-7-7-5-5h7-7-5-7-----7---|Toca ate começar o refrão
|-------------------------------|
|-------------------------------|
|-------------------------------|

        D5               C5     Bb5
Can you see my eyes are shining bright?
               A5          G5
'Cause I'm out here on the other side
     A5              Bb5
Of a jet black hotel mirror
     C5
And I'm so weak
D5          C5    Bb5
 Is it hard understanding?
    A5   G5
I'm incomplete
   A5            Bb5
A love that's so demanding
 C5
I get weak

(Refão)

F5                         F5/E
I am not afraid to keep on living
D5                              C5    Bb5
I am not afraid to walk this world alone
                         C5
Honey, if you stay, I'll be forgiven
Bb5                       C5
Nothing you can say could stop me going home

F5                         F5/E
I am not afraid to keep on living
D5                              C5    Bb5
I am not afraid to walk this world alone
                         C5
Honey, if you stay, I'll be forgiven
Bb5                       C5
Nothing you can say could stop me going home

(Solo)

E |-------------15-13-------------------------------------------------------------------------------
B |-13--13-15-13------13-(18-17-15)(17-15-13)(15-13)----------------------13----(10-8-6)(8-6-5)-----
G |-------------------------------------------------17--17--17-14-17--14---14-----------------(7-5)-
D |--------------------------------------------------------------------------15---------------------
A |-------------------------------------------------------------------------------------------------
E |-------------------------------------------------------------------------------------------------

-----------------------/--------------------------------------------------------------------------
-----------------------/--------------------------------------------------------------------------
-10--9--12--10--14--12-/-15--15--14-12-14-12-10--9-(10-9-7-12-14-12-10-9)--7--7--7--5--3--2-------
-----------------------/--------------------------------------------------------------------------
-----------------------/--------------------------------------------------------------------------
-----------------------/--------------------------------------------------------------------------

-------------------------------------------------------------------------------15--13-------------
------------------------------------------------------------------------13--13--------15--13------
----------------------------------------------(10-12-14-15)-15--14-12-14--------------------------
-(8-7-8-7)--------------------------(5-7-8-10)----------------------------------------------------
---------(10-8-7)---------(5-7-8-10)--------------------------------------------------------------
-----------------10-(8-7-5)-----------------------------------------------------------------------

-------------------------13-13-13-13-13-13-13-13--15-15-----------|
-13-13-13-13-13-13-13-13------------------------------------------|
------------------------------------------------------------------|
------------------------------------------------------------------|
------------------------------------------------------------------|
------------------------------------------------------------------|

|These bright lights are always blinded to me|
|                                            |
|These bright lights are always blinded to me|  Parte cantada enquanto toca o solo
|                                            |
|I said                                      |


F5        F5/E   D5                                 A5    Bb5
I see you lying next to me with words I thought I'd never speak
C5        G5
Awake and unafraid,
  C5
a sleep or dead.
     F          F5/E  D5                                A5      Bb5
'Cause I see you lying next to me with words I thought I'd never speak
C5        G5
Awake and unafraid,
  C5
a sleep or dead

(Refrão)

F5                         F5/E
I am not afraid to keep on living
D5                              C5    Bb5
I am not afraid to walk this world alone
                         C5
Honey, if you stay, I'll be forgiven
Bb5                       C5
Nothing you can say could stop me going home

F5                         F5/E
I am not afraid to keep on living
D5                              C5    Bb5
I am not afraid to walk this world alone
                         C5
Honey, if you stay, I'll be forgiven
Bb5                       C5
Nothing you can say could stop me going home

F5                         F5/E
I am not afraid to keep on living
D5                              C5    Bb5
I am not afraid to walk this world alone
                         C5
Honey, if you stay, I'll be forgiven
Bb5                       C5
Nothing you can say could stop me going home


    F5  F5/E
G |-10-|-10-|
D |-10-|-10-|
A |-8--|-7--|
E |----|----|
Composição de My Chemical Romance
Colaboração e revisão:
  • Vanusa Costa
21.238 exibições
    • ½ Tom
    • A
    • Bb
    • B
    • C
    • Db
    • D
    • Eb
    • E
    • F
    • F#
    • G
    • Ab
  • Adicionar à lista

    0 comentários

    Mostrar mais comentários

    Conseguiu tocar?

    6 Tocaram 5 Ainda não

    Grave um vídeo tocando Famous Last Word e mande pra gente!

    00:00 / 00:00
    outros vídeos desta música
    repetir qualidade Automático
    Outros vídeos desta música
    00:00 / 00:00
    Automático

    Cifra Club Pro

    Aproveite o Cifra Club com benefícios exclusivos e sem anúncios
    7 dias grátis
    Cifra Club Pro
    Aproveite o Cifra Club com benefícios exclusivos e sem anúncios
    7 dias grátis
    OK