Cifra Club

Aprenda

Toca Fogo

Natiruts

Tab de baixo: Principal
Já pensou em usar uma coleção de roupas do Cifra Club? Responda as perguntas abaixo e nos ajude nessa missão! →
A linha de baixo começa no meio da introdução de guitarras
   			
   Am7    Em7                 Am7
G|-----||-------------------|---------------||
D|-----||-------------------|---------------|| 3X
A|-----||-7-7--7-------7----|----------5-6--|| 
E|-5---||---------7-7-----5-|-5-8--8-8------||

Na quarta vez

  Em7                  Am7
G|-------------------|---------||
D|-------------------|---------||
A|-7-7--7-------7----|---------|| 
E|---------7-7-----5-|---------||
                  (deixar esta nota soar até o fim compasso de Am)

Versos (duas vezes)

   Em7                 Am7
G|-------------------|------------------|
D|-------------------|------------------|
A|-7-7--7-------7----|---------------5--| 
E|---------7-7-----7-|-5-5-5--0-3--5----|

   Em7                  Am7
G|-------------------|------------------|
D|-------------------|------------------|
A|-7-7--7-------7----|------------------| 
E|---------7-7-----7-|-5-5-5--0-3--5-5--|

   Bm7		       Am7 
G|-------------------|-------------------|
D|-------------------|-------------------|
A|-------------------|-------------------| 
E|-7-7--7--5-5--7-7--|-5-5--5--0-3--5-5--|
				
   Bm7		       Am7		 
G|-------------------|-------------------||
D|-------------------|-------------------||
A|-------------------|---------------(5)-|| 
E|-7-7--7--5-5--7-7--|-5-5--5--0-3-5-----||
                                     (na segunda vez não tocar a nota que está entre parenteses)

Parte das Baking Vocals

   C7M		      Em7 		       C7M		  Em7
G|------------------|------------------------|------------------|-----------------|
D|------------------|-------9-9-----9-9----9-|------------------|-----9-9-----9-9-|
A|-3-3--3-------3-3-|--7-7------7-------7----|-----7--------7---|-7-7-----7-7-----|
E|---------3-3------|------------------------|-8-8----8---8---8-|-----------------|

   C7M		     Em7 		       C7M	       Bm
G|-----------------|----------------------|------------------|-----------------||
D|-----------------|------9-9----9-9----9-|------------------|-----------------||
A|-----7------7----|-7-7------7------7----|-----7-------7----|-----------------||
E|-8-8---8--8---8--|----------------------|-8-8---8---8---8--|--7--------------||
							(deixar soar até fim do compasso)

Refrão (duas vezes)

   Am7		       Am7                 Bm7		      Bm7
G|-------------------|-------------------|------------------|-----------------|
D|-------------------|-------------------|------------------|-----------------|
A|-------------------|-------------------|------------------|-----------------|
E|-5-5--5--0-0--3-0--|-5-5--5--0-0--3-5--|-7-7--7--0-0--3-5-|-7-7--7--5-5--7--|

Volta para o início e repete tudo
Composição de Natiruts
Colaboração e revisão:
  • Frank Neres
1.604 exibições

0 comentários

Ver todos os comentários

Conseguiu tocar?

0 Tocaram 0 Ainda não

Grave um vídeo tocando Toca Fogo e nos envie!

00:00 / 00:00
Outros vídeos desta música
Repetir Qualidade Automático
Outros vídeos desta música
00:00 / 00:00
Automático

Cifra Club Pro

Aproveite o Cifra Club com benefícios exclusivos e sem anúncios
Cifra Club Pro
Aproveite o Cifra Club com benefícios exclusivos e sem anúncios
OK