Cifra Club

Aprenda

Pago pra ver

Nechivile

Cifra: Principal (violão e guitarra)
tom: A
Intro: A  E  F#m  D  A  E  F#m  D   (2X)
E|----------------------5-4-2---------------------------------|
B|-------------5--5-7---------5-5-------5---------------------|
G|--------6-7---------6-----------4-6-4---2---6/7-7/6-4---6-6-|
D|-7--7-7-----------------------------------------------7-----|
A|------------------------------------------------------------|
E|------------------------------------------------------------|

E|-----------------------5-4-2----------------------------|
B|--------------5--5-7----------5-5-------5---------------|
G|--------4-6-7--------6------------4-6-4---2---4/6--6/7--|
D|-7--7-7-------------------------------------------------|
A|--------------------------------------------------------|
E|--------------------------------------------------------|

A               E                   F#m    D
beijo agente encontra em qualquer lugar
Bm              E                     A    E    A
em qualquer esquina um corpo pra abraçar,
A            E                F#m    D
uma palavra que agrade o coração
Bm             E                  A     E
qualquer boca fala mas é pura ilusão.
F#m                                             C#m
Quero ver voce sair por essa porta e me deizer adeus
                                          D
ter coragem de olhar sem rir nos olhos meus
                   Bm                        E
falar de coração aberto que o nosso amor chegou ao fim!
F#m                                                C#m
Acho melhor voce desarrumar as malas e pensar direito
                                        D
vai sofrer com tudo isso dentro do seu peito
                   Bm                          E
se me deixar agora nao tem outra chance de voltar pra mim

          A         E            F#m          C#m             D
Pago pra ver voce sair da minha vida essa paixão mal resolvida vai te
    Bm           E
deixar em mil pedaços.
          A           E            F#m            C#m         Bm
Pago pra ver voce tentando me esquecer eu pago caro só pra ter voce de
 E               A
volta nos meus braços.
E|----------------------5-4-2---------------------------------|
B|-------------5--5-7---------5-5-------5---------------------|
G|--------6-7---------6-----------4-6-4---2---6/7-7/6-4---6-6-|
D|-7--7-7-----------------------------------------------7-----|
A|------------------------------------------------------------|
E|------------------------------------------------------------|

E|-----------------------5-4-2----------------------------|
B|--------------5--5-7----------5-5-------5---------------|
G|--------4-6-7--------6------------4-6-4---2---4/6--6/7--|
D|-7--7-7-------------------------------------------------|
A|--------------------------------------------------------|
E|--------------------------------------------------------|

F#m                                             C#m
Quero ver voce sair por essa porta e me deizer adeus
                                          D
ter coragem de olhar sem rir nos olhos meus
                   Bm                        E
falar de coração aberto que o nosso amor chegou ao fim!
F#m                                                C#m
Acho melhor voce desarrumar as malas e pensar direito
                                        D
vai sofrer com tudo isso dentro do seu peito
                   Bm                          E
se me deixar agora nao tem outra chance de voltar pra mim.

          A         E            F#m           C#m            D
Pago pra ver voce sair da minha vida essa paixão mal resolvida vai te
    Bm           E
deixar em mil pedaços.
          A           E            F#m            C#m         Bm
Pago pra ver voce tentando me esquecer eu pago caro só pra ter voce de
 E               A
volta nos meus braços.
E|----------------------5-4-2---------------------------------|
B|-------------5--5-7---------5-5-------5---------------------|
G|--------6-7---------6-----------4-6-4---2---6/7-7/6-4---6-6-|
D|-7--7-7-----------------------------------------------7-----|
A|------------------------------------------------------------|
E|------------------------------------------------------------|

E|-----------------------5-4-2----------------------------|
B|--------------5--5-7----------5-5-------5---------------|
G|--------4-6-7--------6------------4-6-4---2---4/6--6/7--|
D|-7--7-7-------------------------------------------------|
A|--------------------------------------------------------|
E|--------------------------------------------------------|
Composição de Sergio Porto / Valdison
Colaboração e revisão:
67.772 exibições
    • ½ Tom
    • A
    • Bb
    • B
    • C
    • Db
    • D
    • Eb
    • E
    • F
    • F#
    • G
    • Ab
  • Adicionar à lista

    0 comentários

    Ver todos os comentários
    00:00 / 00:00
    Outros vídeos desta música
    Repetir Qualidade Automático
    Outros vídeos desta música
    00:00 / 00:00
    Automático

    Cifra Club Pro

    Aproveite o Cifra Club com benefícios exclusivos e sem anúncios
    Cifra Club Pro
    Aproveite o Cifra Club com benefícios exclusivos e sem anúncios
    OK