Cifra Club

Aneurysm

Nirvana

Tab de baixo: Versão 2
intro (o baixo entra com a bateria)

|----------------------
|----------------------
|-----3333-2222-0000---
|-2-22----------------- (x12)

|------------------------
|------------------------
|------------------------
|-2------2------2------2- (x2)

na parte que fica só baixo e baixo e bateria

fig 1                         fig 2
|--------------------------  |-----------------
|--------------------------  |-----------------
|-2-22-222-22-2-2-22-222-22  |-5-5-55555555555-
|--------------------------  |-----------------
 nessa parte a sequencia é assim:

fig 1 x2
fig 2 x1
fig 1 x1
fig 1 x1

agora entra a voz:

fig 1 x1
fig 2 x1
fig 1 x1
fig 2 x1
fig 1 x1
fig 2 x1
fig 1 x1
fig 2 x1

refrão:

|-------------------
|-------------------
|---0-3-333-222-000-
|-2----------------- (x8)

ai volta para a voz:

fig 1 x1
fig 2 x1
fig 1 x1
fig 2 x1
fig 1 x1
fig 2 x1
fig 1 x1
fig 2 x1

refrão novamente:

|-------------------
|-------------------
|---0-3-333-222-000-
|-2----------------- (x8)

depois do refrão volta pra essa parte da intro

|------------------------
|------------------------
|------------------------
|-2------2------2------2- (x1)

|----------------------
|----------------------
|-----3333-2222-0000---
|-2-22----------------- (x19)

|------------------------
|------------------------
|------------------------
|-2------2------2------2- (até terminar)
00:00 / 00:00
Outros vídeos desta música
Repetir
Outros vídeos desta música
Composição de Dave Grohl / Krist Novoselic / Kurt Cobain
Colaboração e revisão:
  • fernando athayde
2.235 exibições

0 comentários

Ver todos os comentários

Conseguiu tocar?

0 Tocaram 0 Ainda não

Grave um vídeo tocando Aneurysm e nos envie!

Entre para oCifra Club PRO

Tenha acesso a benefícios exclusivos no App e no Site

  • Chega de anúncios

  • Prioridade de compra em lançamentos

  • Mais recursos no app do Afinador

  • Atendimento Prioritário

  • Descontos nos produtos Cifra Club

  • Ajude a produzir mais conteúdo

00:00 / 00:00
Capítulos
  • Tocando a música
  • Apresentação / Equipamentos
  • TAB - Introdução - Parte 1 de 5
  • TAB - Introdução - Parte 2 de 5
  • TAB - Introdução - Parte 3 de 5
  • TAB - Introdução - Parte 4 de 5
  • TAB - Introdução - Parte 5 de 5
  • TAB - Primeira Parte - Parte 1 de 4
  • TAB - Primeira Parte - Parte 2 de 4
  • TAB - Primeira Parte - Parte 3 de 4
  • TAB - Primeira Parte - Parte 4 de 4
  • TAB - Refrão - Parte 1 de 2
  • TAB - Refrão - Parte 2 de 2
  • Dicas Segunda Parte - Final
  • TAB - Introdução 2 - Parte 1 de 2
  • TAB - Introdução 2 - Parte 2 de 2
  • TAB - Terceira Parte - Parte 1 de 2
  • TAB - Terceira Parte - Parte 2 de 2
  • Encerramento

Cifra Club Pro

Aproveite o Cifra Club com benefícios exclusivos e sem anúncios
Cifra Club Pro
Aproveite o Cifra Club com benefícios exclusivos e sem anúncios
OK