Cifra Club

Here comes your man

Pixies

Cifra: Versão 3 (violão e guitarra)
tom: G
(intro 3x)

E|------------------------------------------------||
B|------------------------------------------------||
G|------------------------------------------------||
D|--0--0----4--4--5------------------------0-2--0-||
A|-------------------0-------2--0--0--4-----------||
E|----------------------3-------------------------||

G                    D
  Outside there's a box car waiting
Am             C
  Outside the family stew
G             D
  Out by the fire breathing
Am           C
  Outside we wait til face turns blue

G             D
  I know the nervous walking
Am            C
  I know the dirty beard hangs
G             D
  Out by the box car waiting
Am                C
  Take me away to nowhere plains

Em                    C               D
  There is a wait so long (so long so long)
                    G
You'll never wait so long

(refrão - tocar junto com a intro)

C  D                G
    Here comes your man (3 tempos)

(solo)
E|----------------------------------------------------------------|
B|----------------------------------------------------------------|
G|--11--9-------------------------9---11--9----------11-11-9----9-|
D|---------12--12--11--11--11h12-------------12--12----------12---|
A|----------------------------------------------------------------|
E|----------------------------------------------------------------|

(verso 3 - mesmos acordes dos outros versos)

Big shake on the box car moving
Big shake to the land that's falling down
Is a wind makes a palm stop blowing
A big, big stone fall and break my crown

(solo 2)
E|--------------------------------------------------------------|
B|--15-15-15-17-15-17-15----------------------------------------|
G|--14-14-14-14-14-14-14--14-14-16-14-16-14--12-12-14-12-14-12--|
D|------------------------14-14-14-14-14-14--12-12-12-12-12-12--|
A|--------------------------------------------------------------|
E|--------------------------------------------------------------|
                (3x)
E|------------------|--------------------------------------------|
B|------------------|--------------------------------------------|
G|--12--12-12-12-12-|--------------------------------------------|
D|--14--14-14-14-14-|--12-12-12--12-12-12-1214-14-14--14-14-14--|
A|------------------|--------------------------------------------|
E|------------------|--------------------------------------------|

E|---------------------------------------------|
B|---------------------------------------------|
G|---------------------------------------------|
D|--14/12-12-12--12-12-12-12-14-14-14--14-14---|
A|---------------------------------------------|
E|---------------------------------------------|
Composição de Black Francis
Colaboração e revisão:
  • Gabriel Gonçalves
952 exibições
    • ½ Tom
    • A
    • Bb
    • B
    • C
    • Db
    • D
    • Eb
    • E
    • F
    • F#
    • G
    • Ab
  • Adicionar à lista

    0 comentários

    Ver todos os comentários

    Conseguiu tocar?

    0 Tocaram 0 Ainda não

    Grave um vídeo tocando Here comes your man e nos envie!

    00:00 / 00:00
    Outros vídeos desta música
    Repetir Qualidade Automático
    Outros vídeos desta música
    00:00 / 00:00
    Automático

    Cifra Club Pro

    Aproveite o Cifra Club com benefícios exclusivos e sem anúncios
    Cifra Club Pro
    Aproveite o Cifra Club com benefícios exclusivos e sem anúncios
    OK