Cifra Club

Aprenda

Na Sombra do Ego

Ponto Nulo no Céu

Cifra: Principal (violão e guitarra)
tom: E
Intro:
D|------------------------------------| (3x) |-----------------------|
A|------------------------------------|      |-----------------------|
F|------------------------------------|      |-----------------------|
C|--7p0-7p0-8p0-7p0-10p0-8p0-7p0-8p0--|      |--7p0-7p0-8p0-7p0-10^--|
G|------------------------------------|      |-----------------------|
C|------------------------------------|      |-----------------------|
 
D|------------------------------------------------------------------------------------------------|
A|------------------------------------------------------------------------------------------------|
F|-------------------------------------------------10---------------------------------------------|
C|--0--0-0-0-0--0--0--0-0--0--0--0-0-0-0--0--0--0--10-0--0--0-0-0-0--0--0--0-0--0--0--0-0-0-0--0--|
G|--0--0-0-0-0--0--0--0-0--0--0--0-0-0-0--0--0--0--8--0--0--0-0-0-0--0--0--0-0--0--0--0-0-0-0--0--|
C|--0--0-0-0-0--0--0--0-0--0--0--0-0-0-0--0--0--0-----0--0--0-0-0-0--0--0--0-0--0--0--0-0-0-0--0--|
PM  .  . . . .  .  .  .    .  .  . . . .  .  .  .     .  .  . . . .  .  .  .    .  .  . . . .  .

Primeira Parte 2x: 
Já cansei de me repetir.... 
Já cansei de insistir.....
D|------------------------------| (3x) |--------------------------------|
A|------------------------------|      |--------------------------------|
F|-----------------------10-----|      |--------------------------------|
C|--0--0-0-0-0--0--0--0--10--0--|      |--0--0-0-0-0--0--0--0--8-0-7-0--|
G|--0--0-0-0-0--0--0--0--8---0--|      |--0--0-0-0-0--0--0--0--8-0-7-0--|
C|--0--0-0-0-0--0--0--0------0--|      |--0--0-0-0-0--0--0--0--8-0-7-0--|
PM  .  . . . .  .  .  .      .            .  . . . .  .  .  .  . . . .

D|------------------------------------------------------------|
A|------------------------------------------------------------|
F|------------------------------------------------------------|
C|--0--8\7--5--12p0-10p0-8p0-7--0--8\7--5--15p0-13p0-12p0-10--|
G|--0--8\7--5-------------------0--8\7--5---------------------|
C|--0--8\7--5-------------------0--8\7--5---------------------|

D|------------------------------------------------------|
A|------------------------------------------------------|
F|-----------------------------------------10-----------|
C|--0--8\7--5--12p0-10p0-8p0-7--0--8\7--5--10-0-0--0-0--|
G|--0--8\7--5-------------------0--8\7--5--8--0-0--0-0--|
C|--0--8\7--5-------------------0--8\7--5-----0-0--0-0--|
PM                                            . .  . .

Pré-Refrão: 
Prefere morrer só a assumir as responsabilidades.....
D|----------------------------------------------------------------------|
A|----------------------------------------------------------------------|
F|----------------------------------------------------------------------|
C|--0--0--0-0--0--0--0---0--0--0-0--0--0^7-0^7-0^7-0^7-0^7-0^7-0^7-0^7--|
G|--0--0--0-0--0--0--0---0--0--0-0--0-----------------------------------|
C|--0--0--0-0--0--0--0---0--0--0-0--0-----------------------------------|

D|-----------------------------------------------------------|
A|-----------------------------------------------------------|
F|-----------------------------------------------------------|
C|--------7-7-7-------7-7-7-----7-------5-5-5-------3--2--0--|
G|--5-5-5-------5-5-5-------5-5---3-3-3-------3-3-3----------|
C|-----------------------------------------------------------|

D|------------------------------------------------------------|
A|------------------------------------------------------------|
F|------------10-12-14-14-15-15-15-15-------------15-14-12-10-|
C|--0-0--0-0--x--x--x--x--x--x--x--x--0-0--0-0--0-x--x--x--x--|
G|--0-0--0-0--8--10-12-12-13-13-13-13-0-0--0-0--0-13-12-10-8--|
C|--0-0--0-0--------------------------0-0--0-0--0-------------|

D|------------------------------------------------------------|
A|------------------------------------------------------------|
F|------------------------------------------------------------|
C|--------7-7-7-------7-7-7-----7-7-------5-5-5-----5---------|
G|--7-7-7-------7-7-7-------7-7-----5-5-5-------5-5---8-7-7^--|
C|------------------------------------------------------------|

Refrão:
Palavras não surtem mais efeito....
D|------------------------------------------------------------------------------|
A|------------------------------------------------------------------------------|
F|----------------------------9-x-x-x-5---------------------------10-x-x-x-7----|   (2x)
C|--0--0-0-0-0--0--0--0-0--0--9-x-x-x-5--0--0-0-0-0--0--0--0-0--0-10-x-x-x-7----|
G|--0--0-0-0-0--0--0--0-0--0--7-x-x-x-3--0--0-0-0-0--0--0--0-0--0-8--x-x-x-5----|
C|--0--0-0-0-0--0--0--0-0--0-------------0--0-0-0-0--0--0--0-0--0---------------|

Solo:
D|-----| |-----------------------------------------------------------|
A|-----| |-----------------------------------------------------------|
F|-----| |--------------7-5-------------7-5--------------------------|   (4x)
C|--0--| |--0-0-5-0-7-0-----0-0-5-0-7-0-----0-0-5-0-7-0-0-0--7-8-10--|
G|--0--| |-----------------------------------------------------------|
C|--0--| |-----------------------------------------------------------|

D|------------------------------------------------------------------|
A|------------------------------------------------------------------|
F|-------------------------------14-12-12~-17-15-14-x-12-10-9-x-14~-|
C|--10/12-12~-12h13p12~-12h13h15------------------------------------|
G|------------------------------------------------------------------|
C|------------------------------------------------------------------|

D|------------------------------------------------------------------------------|
A|------------------------------------------------------------------------------|
F|--15-14-12-14-12-10-12-10-9/10~-12-10-9-10-9-7-9-7----------------------------|
C|---------------------------------------------------10-10/12-12-10-8-----------|
G|--------------------------------------------------------------------12-10-10--|
C|------------------------------------------------------------------------------|

D|----------10-10-10/12--------------8-8-8/10------------------------------------|
A|-------10-------------12---------8----------10---------------------------------|
F|-----9-------------------12~---7---------------10~-12-10-9-12-10-9-12-12/15-14-|
C|--10-------------------------8-------------------------------------------------|
G|-------------------------------------------------------------------------------|
C|-------------------------------------------------------------------------------|

D|------------------------------------------------------------------------------|
A|--17-15----15-15h17----17---------------------------------13~-----------------|
F|--------17----------17----14~--9h10-9--9h10-9----------10-----9h10-9--9h10-9--|
C|----------------------------------------------12-10-12------------------------|
G|------------------------------------------------------------------------------|
C|------------------------------------------------------------------------------|

Segunda Parte: 
Traçando sua própria decadência......
D|-----------------------------------------------------------------------------------|
A|-------------------------------------------------------------------------13--13-13-|
F|--------------------------------12--12-12--------------------------------x---x--x--|
C|--0--0--5--0--8-7-5--0--0--5--0-x---x--x---0--0--5--0--8-7-5--0--0--5--0-10--10-10-|
G|--0--0--5--0--8-7-5--0--0--5--0-10--10-10--0--0--5--0--8-7-5--0--0--5--0-----------|
C|--0--0--5--0--8-7-5--0--0--5--0------------0--0--5--0--8-7-5--0--0--5--0-----------|
PM  .  .               .  .                  .  .               .  .

D|-----------------------------------------------------------------------------|
A|---------------------------------13--13-13-----------------------------------|
F|---------------------------------x---x--x------------------------------------|
C|---0--0--5--0--8-7-5--0--0--5--0-10--10-10--0--0--5--0--8-7-5--0--0--5--0-0--|
G|---0--0--5--0--8-7-5--0--0--5--0------------0--0--5--0--8-7-5--0--0--5--0-0--|
C|---0--0--5--0--8-7-5--0--0--5--0------------0--0--5--0--8-7-5--0--0--5--0-0--|
PM   .  .               .  .                  .  .               .  .

Achou que era o dono do mundo....
D|------------------------------------------------------|
A|------------------------------------------------------|
F|------------------------------------------------------|   (2x)
C|--0--5-5-5-x-0--5-5-5-x-0--5-5-5-x-x-8-0-0-7-0-0-5-0--|
G|--0--5-5-5-x-0--5-5-5-x-0--5-5-5-x-x-8-0-0-7-0-0-5-0--|
C|--0--5-5-5-x-0--5-5-5-x-0--5-5-5-x-x-8-0-0-7-0-0-5-0--|
PM                                     . . . . . . . .

Seu passado obscuro, deixado para trás.....
D|-------------------------------------------------------------------|
A|-------------------------------------------------------------------|
F|-------10-10-10-------10-10-10-------10-10-10----------------------|   (2x)
C|--0--0-x--x--x--0-0-0-x--x--x--0-0-0-x--x--x--0-0-8-0-0-7-0-0-5-0--|
G|--0--0-8--8--8--0-0-0-8--8--8--0-0-0-8--8--8--0-0-8-0-0-7-0-0-5-0--|
C|--0--0----------0-0-0----------0-0-0----------0-0-8-0-0-7-0-0-5-0--|
PM                                                  . . . . . . . .

D|-------------------------------------------------------------------|
A|-------------------------------------------------------------------|
F|-------15-15-15-------15-15-15-------15-15-15----------------------|
C|--0--0-x--x--x--0-0-0-x--x--x--0-0-0-x--x--x--0-0-8-0-0-7-0-0-5-0--|
G|--0--0-13-13-13-0-0-0-13-13-13-0-0-0-13-13-13-0-0-8-0-0-7-0-0-5-0--|
C|--0--0----------0-0-0----------0-0-0----------0-0-8-0-0-7-0-0-5-0--|
PM                                                  . . . . . . . .

D|-------------------------------------------------------------------|
A|-------------------------------------------------------------------|
F|-------10-10-10-------10-10-10-------10-10-10----------------------|
C|--0--0-x--x--x--0-0-0-x--x--x--0-0-0-x--x--x--0-0-8-0-0-7-0-0-5-0--|
G|--0--0-8--8--8--0-0-0-8--8--8--0-0-0-8--8--8--0-0-8-0-0-7-0-0-5-0--|
C|--0--0----------0-0-0----------0-0-0----------0-0-8-0-0-7-0-0-5-0--|
PM                                                  . . . . . . . .

Já não lhe serve mais.....
D|-----------------------------------------------------------------------------------|
A|-----------------------------------------------------------------------------------|
F|--15-15-15-15-15-15-15-15-15\14-14-14-14-14-14-14-14-14/17-17-17-17-17-17-17-17\15-|
C|--x--x--x--x--x--x--x--x--x-\x--x--x--x--x--x--x--x--x-/x--x--x--x--x--x--x--x-\x--|
G|--13-13-13-13-13-13-13-13-13\12-12-12-12-12-12-12-12-12/15-15-15-15-15-15-15-15\13-|
C|-----------------------------------------------------------------------------------|

D|------------------------------------------------------------------------|
A|------------------------------------------------------------------------|
F|--15-15-15-15-15-15-15-15\14-14-14-14-14-14-14\12-12-12-12-12-12-12-12--|
C|--x--x--x--x--x--x--x--x-\x--x--x--x--x--x--x-\x--x--x--x--x--x--x--x---|
G|--13-13-13-13-13-13-13-13\12-12-12-12-12-12-12\10-10-10-10-10-10-10-10--|
C|------------------------------------------------------------------------|

D|--------------------------------------------------------------------|
A|--------------------------------------------------------------------|
F|--15-15-15-15-15-15-15-15-15\14-14-14-14-14-14-14-14-14/17-17-17-17-|
C|--x--x--x--x--x--x--x--x--x-\x--x--x--x--x--x--x--x--x-/x--x--x--x--|
G|--13-13-13-13-13-13-13-13-13\12-12-12-12-12-12-12-12-12/15-15-15-15-|
C|--------------------------------------------------------------------|

D|------------------------------------------------------------------|
A|------------------------------------------------------------------|
F|--17-17-17-17\15-15-15-15-15-15-15-15-15\14-14-14-14-14-14-14-12--|
C|--x--x--x--x-\x--x--x--x--x--x--x--x--x-\x--x--x--x--x--x--x--x---|
G|--15-15-15-15\13-13-13-13-13-13-13-13-13\12-12-12-12-12-12-12-10--|
C|------------------------------------------------------------------|

Refrão: 
Palavras não surtem mais efeito....
D|------------------------------------------------------------------------------|
A|------------------------------------------------------------------------------|
F|----------------------------9-x-x-x-5---------------------------10-x-x-x-7----|   (2x)
C|--0--0-0-0-0--0--0--0-0--0--9-x-x-x-5--0--0-0-0-0--0--0--0-0--0-10-x-x-x-7----|
G|--0--0-0-0-0--0--0--0-0--0--7-x-x-x-3--0--0-0-0-0--0--0--0-0--0-8--x-x-x-5----|
C|--0--0-0-0-0--0--0--0-0--0-------------0--0-0-0-0--0--0--0-0--0---------------|

Fim:
D|------------------------|
A|------------------------|
F|------------------------|   (6x)
C|--0--0-0--0-0-0--0-0-0--|
G|--0--0-0--0-0-0--0-0-0--|
C|--0--0-0--0-0-0--0-0-0--|
PM  .  . .  . . .  . . .

Você não entende.....
D|---------------------------------------------------------------------------------------|
A|---------------------------------------------------------------------------------------|
F|-----------------10-9-10---------------10-10-10---------------10-9-10------------------|
C|--0--0-0--0-0-0--x--x-x--0--0-0--0-0-0-x--x--x--0--0-0--0-0-0-x--x-x--0--0-0--0-0-0-0--|
G|--0--0-0--0-0-0--8--7-8--0--0-0--0-0-0-8--8--8--0--0-0--0-0-0-8--7-8--0--0-0--0-0-0-0--|
C|--0--0-0--0-0-0----------0--0-0--0-0-0----------0--0-0--0-0-0---------0--0-0--0-0-0-0--|

O que te prende aí é sua ignorância....
D|------------------------------------| (3x) |-----------------------|
A|------------------------------------|      |-----------------------|
F|------------------------------------|      |-----------------------|
C|--7p0-7p0-8p0-7p0-10p0-8p0-7p0-8p0--|      |--7p0-7p0-8p0-7p0-10^--|
G|------------------------------------|      |-----------------------|
C|------------------------------------|      |-----------------------|

É sua ignorância.......
D|------------------------------------------------------------------------|
A|------------------------------------------------------------------------|
F|----------------------10-10-10-10-10---------------------12-12-12-12-12-|
C|--7p0-7p0-8p0-7p0-7p0-x--x--x--x--x--7p0-7p0-8p0-7p0-7p0-x--x--x--x--x--|
G|----------------------8--8--8--8--8----------------------10-10-10-10-10-|
C|------------------------------------------------------------------------|

D|-------------------------------------------------------------------------|
A|-------------------------------------------------------------------------|
F|----------------------14-14-14-14-14---------------------15-15-15-15-15--|
C|--7p0-7p0-8p0-7p0-7p0-x--x--x--x--x--7p0-7p0-8p0-7p0-7p0-x--x--x--x--x---|
G|----------------------12-12-12-12-12---------------------13-13-13-13-13--|
C|-------------------------------------------------------------------------|

D|-------------------|
A|-------------------|
F|-------------------|
C|--0--0-0--0-0-0-0--|
G|--0--0-0--0-0-0-0--|
C|--0--0-0--0-0-0-0--|
PM  .  . .  . . . .
Composição de Ponto Nulo No Céu
Colaboração e revisão:
  • Jonathan
3.834 exibições
    • ½ Tom
    • A
    • Bb
    • B
    • C
    • Db
    • D
    • Eb
    • E
    • F
    • F#
    • G
    • Ab
  • Adicionar à lista

    0 comentários

    Ver todos os comentários

    Conseguiu tocar?

    1 Tocaram 0 Ainda não

    Grave um vídeo tocando Na Sombra do Ego e nos envie!

    00:00 / 00:00
    outros vídeos desta música
    repetir qualidade Automático
    Outros vídeos desta música
    00:00 / 00:00
    Automático

    Cifra Club Pro

    Aproveite o Cifra Club com benefícios exclusivos e sem anúncios
    Cifra Club Pro
    Aproveite o Cifra Club com benefícios exclusivos e sem anúncios
    OK