Cifra Club

Tua Obra Em Nós

Projeto Sola

Cifra: Principal (violão e guitarra)
Selo Cifra Club: esta cifra foi revisada para atender aos critérios oficiais da nossa Equipe de Qualidade.
tom: Em
[Intro] Em  C  G
        Em  C  G

[Tab - Intro]

Parte 1 de 2
E|------------------------------------------|
B|--------------3p0-------------------------|
G|-----------0------------0h2h4----2h4p2-0h2|
D|-------0h2-----------0---------0----------|
A|---0h2-------------3----------------------|
E|-0----------------------------3-----------|

Parte 2 de 2
E|------------------------------------------|
B|--------------3p0-------------------------|
G|-----------0------------0h2h4----2h4p2--0-|
D|-------0h2-----------0---------0----------|
A|---0h2-------------3----------------------|
E|-0----------------------------3-----------|

Em           C
Vejo que não sou
G
Quem eu devo ser
Em          C
Mas por tua mão
G
Já não sou quem fui

Em          C
Liberdade e amor
G
Em meu interior
Em        C
Fruto do teu
G
Santo Espírito

Am         C
Guie o meu andar
G      D
Em tua verdade
Am             C
A expressão do Filho
G           D
Faz crescer em mim

G                G7M
Nada vencerá teu amor
C9
De paz encheu o meu coração
Em
Bondade encontro no teu perdão
C9                     D
Novo sou, pois tua luz, traz direção

[Tab - Solo]

Parte 1 de 2
E|------------------------------------------|
B|--------------3p0-------------------------|
G|-----------0------------0h2h4----2h4p2-0h2|
D|-------0h2-----------0---------0----------|
A|---0h2-------------3----------------------|
E|-0----------------------------3-----------|

Parte 2 de 2
E|------------------------------------------|
B|--------------3p0-------------------------|
G|-----------0------------0h2h4----2h4p2--0-|
D|-------0h2-----------0---------0----------|
A|---0h2-------------3----------------------|
E|-0----------------------------3-----------|

Em           C
Vejo que não sou
G
Quem eu devo ser
Em          C
Mas por tua mão
G
Já não sou quem fui

Em          C
Liberdade e amor
G
Em meu interior
Em        C
Fruto do teu
G
Santo Espírito

Am         C
Guie o meu andar
G      D
Em tua verdade
Am             C
A expressão do Filho
G           D
Faz crescer em mim

G                G7M
Nada vencerá teu amor
C9
De paz encheu o meu coração
Em
Bondade encontro no teu perdão
C9                     D
Novo sou, pois tua luz, traz direção

G                G7M
E pra tua igreja servir
C9
Ver tua face no meu irmão
Em
Contemplar tua obra em nós
C9                     D
Até o fim, permanecer, em teu amor

[Tab - Final]

Parte 1 de 2
E|------------------------------------------|
B|--------------3p0-------------------------|
G|-----------0------------0h2h4----2h4p2-0h2|
D|-------0h2-----------0---------0----------|
A|---0h2-------------3----------------------|
E|-0----------------------------3-----------|

Parte 2 de 2
E|------------------------------------------|
B|--------------3p0-------------------------|
G|-----------0------------0h2h4----2h4p2--0-|
D|-------0h2-----------0---------0----------|
A|---0h2-------------3----------------------|
E|-0----------------------------3-----------|
Outros vídeos desta música
4.299 exibições
    • ½ Tom
    • Am
    • Bbm
    • Bm
    • Cm
    • C#m
    • Dm
    • Ebm
    • Em
    • Fm
    • F#m
    • Gm
    • G#m
  • Adicionar à lista

Afinação da cifra

Afinador online

    0 comentários

    Ver todos os comentários

    Entre para o Cifra Club PRO

    Tenha acesso a benefícios exclusivos no App e no Site

    • Chega de anúncios

    • Mais recursos no app do Afinador

    • Atendimento Prioritário

    • Aumente seu limite de lista

    • Ajude a produzir mais conteúdo

    Cifra Club Pro

    Aproveite o Cifra Club com benefícios exclusivos e sem anúncios
    Cifra Club Pro
    Aproveite o Cifra Club com benefícios exclusivos e sem anúncios
    OK