Cifra Club

Aprenda

Be My Escape Acoustic

Relient K

Cifra: Principal (violão e guitarra)
tom: D
Be My Escape (Acoustic Version)
Apathetic EP
Gotee/Capitol Records


----------------------------Chord Charts--------------------------

  A         D        F#m       Em        Bm

--5--     --5--     --9--     --7--     --2--|
--5--     --6--     --9--     --7--     --2--|
--6--     --6--     --9--     --9--     --4--|
--7--     --6--     -11--     --9--     --4--|
--7--     --5--     -11--     --7--     --2--|
--5--     --x--     --9--     --x--     --x--|

------------------------------------------------------------------

Intro


Guitar 1


e--9-    --9-     --9-    --9-    --9-|
B-10-    --9-     -10-    --9-    --9-|
G-11-(x4)-11-(x7) -11-(x4)-11-(x3)--9-|(x3)
D-11-    -11-     -11-    -11-    -11-|
A--9-    --9-     --9-    --9-    --9-|
E--9-    --9-     --9-    --9-    --9-|

Guitar 2

-------------------|
-------------------|
-7777777777777777--|
-7777777777777777--|
-5555555555555555--|
-------------------|

e--9-    --9-     --9-    --9-    --9-    -------------------
B-10-    --9-     -10-    --9-    --9-    -------------------
G-11-(x4)-11-(x7) -11-(x4)-11-(x3)--9-(x3)-7777777777777777--
D-11-    -11-     -11-    -11-    -11-    -7777777777777777--
A--9-    --9-     --9-    --9-    --9-    -5555555555555555--
E--9-    --9-     --9-    --9-    --9-    -------------------
-------------------|
-7777777777777777--|
-7777777777777777--|
-5555555555555555--|
-------------------|

Verse 1

A D F#m Em A D (x2)

Pre-Chorus

F#m D A Em (x3)

Bm D Em

Chorus

A Em D Em (x3)

F#m Em D Em

Verse 2

A D F#m Em A D (x2)

Pre-Chorus 2

F#m D A Em (x3)

Bm D Em

Guitar 2 solo
--17-16------------------------|
--------17-14-17----14---------|
-----------------16----16-14---|
-------------------------------|
-------------------------------|
-------------------------------|

Chorus

A Em D Em (x3)

F#m Em D Em

Bridge
e--9-    --9-     --9-    --9-    --9-|
B-10-    --9-     -10-    --9-    --9-|
G-11-(x2)-11-(x3) -11-(x2)-11-(x2)--9-|(x2)
D-11-    -11-     -11-    -11-    -11-|
A--9-    --9-     --9-    --9-    --9-|
E--9-    --9-     --9-    --9-    --9-|

Pre Chorus

F#m D A Em (x3)

Bm D Em

Chorus

A Em D Em (x3)

F#m Em D Em

Then there's the piano outro so that's it
3.943 exibições
    • ½ Tom
    • A
    • Bb
    • B
    • C
    • Db
    • D
    • Eb
    • E
    • F
    • F#
    • G
    • Ab
  • Adicionar à lista

    0 comentários

    Ver todos os comentários
    00:00 / 00:00
    outros vídeos desta música
    repetir qualidade Automático
    Outros vídeos desta música
    00:00 / 00:00
    Automático

    Cifra Club Pro

    Aproveite o Cifra Club com benefícios exclusivos e sem anúncios
    Cifra Club Pro
    Aproveite o Cifra Club com benefícios exclusivos e sem anúncios
    OK