Cifra Club

Aprenda

Sadie Hawkins Dance

Relient K

Cifra: Principal (violão e guitarra)
tom: Bb
Intro(Clean)
 [---6---6---5---5---3---3---6---6-]
 [--3---3---3---3---3---3---3---3--] The song fades
 [-3---3---3---3---3---3---3---3---] in with this..
 [---------------------------------]
 [---------------------------------]
 [---------------------------------]

Lead Riff(Distorted)
 [--------------------------------------------------]
 [--------------------------------------------------]
 [-7-8-10--7-8-10--7-8-10--7-7-10-8-8-10-7-10-------]
 [-------------------------x-x-x--x-x-x--x-x--------]
 [--------------------------------------------------]
 [--------------------------------------------------]
   Bb      F       G       Eb

 Bb                   F
 All the girls in the bathroom talking,
 G                          Eb
 Who they gonna take to the Sadie Hawkins,
    Bb                      F
 My ears are burning, But I kept on walking,
 G                       Eb
 Smile on my face and an air guitar rockin',,

 Bb                    F
 Sadie Hawkins Dance, In my khaki pants,
 G                     Eb
 There's nothing better, Oh oh oh oh!
 Bb                      F
 The girls ask the guys, It's always a suprise,
 G                             Eb
 There's nothing better, Baby, Do you like my sweater?

 Sitting in the back of my next class napping,
 Gotta give a speech, Then bow to the clapping,
 Told a funny joke, Got the whole class laughing,
 Think I got a tan from the light which I was basking..

 (Chorus 2x)
 (Lead Riff)
Lead Riff 2
 [--------------------------------------------------------------------]
 [-6-6-6-8-8-8-1111-6-6-6-8-8-8-1111-6-6-6-8-8-8-1111-1111118-8-8-6-6-]
 [-x-x-x-x-x-x-x-x--x-x-x-x-x-x-x-x--x-x-x-x-x-x-x-x--x-x-x-x-x-x-x-x-]
 [-3-3-3-5-5-5-8-8--3-3-3-5-5-5-8-8--3-3-3-5-5-5-8-8--8-8-8-5-5-5-3-3-]
 [--------------------------------------------------------------------]
 [--------------------------------------------------------------------]

(Intro Lightly In the Background)
 Scan the cafeteria for some good seating,
 I found a good spot by the cheerleaders eating,
 The quarterback asked me if I'd like a beating,
 I said that's one thing I won't be needing,
 Since I'm rather smart and cunning,
 I took off down the next hall running,
 Only to get stopped by a girl so stunning,
 Only to get stopped by a girl so stunning..
(Only Bass)
 She said your smooth, And good with talking,
               Eb           F*
 Come with me, To the Sadie Hawkins..

 (Chorus 2x) (End on A# bar chord)
Composição de Matthew Thiessen
3.342 exibições
    • ½ Tom
    • A
    • Bb
    • B
    • C
    • Db
    • D
    • Eb
    • E
    • F
    • F#
    • G
    • Ab
  • Adicionar à lista

    0 comentários

    Ver todos os comentários
    00:00 / 00:00
    outros vídeos desta música
    repetir qualidade Automático
    Outros vídeos desta música
    00:00 / 00:00
    Automático

    Cifra Club Pro

    Aproveite o Cifra Club com benefícios exclusivos e sem anúncios
    Cifra Club Pro
    Aproveite o Cifra Club com benefícios exclusivos e sem anúncios
    OK