Cifra Club

Aprenda

Anywhere But Here

Rise Against

Cifra: Principal (violão e guitarra)
tom: Eb
Tuning: Eb Ab Db Gb Bb eb
Tabbed: Juho Kilkki juho.kilkk@gmail.com


INTRO
Guitar 1                         3x
eb|--------------------------------|--------------------------------|
Bb|--------------------------------|--------------------------------|
Gb|----------------2-2-2-2-2-2-2-2-|4-4-4-4-4-4-4-4-4-4-4-4-4-4-4-4-|
Db|2-2-2-2-2-2-2-2-2-2-2-2-2-2-2-2-|4-4-4-4-4-4-4-4-4-4-4-4-4-4-4-4-|
Ab|2-2-2-2-2-2-2-2-0-0-0-0-0-0-0-0-|2-2-2-2-2-2-2-2-2-2-2-2-2-2-2-2-|
Eb|0-0-0-0-0-0-0-0-----------------|--------------------------------|

Guitar 2                                 3x
eb|----------------------------------------|--------------------------------------------|
Bb|----------------------------------------|12-12-12-12-12-12-12------------------------|
Gb|13-13-13-13-11-11-13-13-9-9-9-9-8-8-8-8-|---------------------14-13-13-13-11-9-9-9-9-|
Db|------------------------7-7-7-7-7-7-7-7-|9--9--9--9--9--9--9-------------------------|
Ab|11-11-11-11-9--9--11-11-----------------|---------------------12-11-11-11-9--7-7-7-7-|
Eb|----------------------------------------|--------------------------------------------|

VERSE 1                                                          4x
eb|----------------------------------------------------------------|
Bb|----------------------------------------------------------------|
Gb|6-6-6-6-6-6-6-6-----------------9-9-9-9-9-9-9-9-----------------|
Db|6-6-6-6-6-6-6-6-7-7-7-7-7-7-7-7-9-9-9-9-9-9-9-9-9-9-9-9-9-9-9-9-|
Ab|4-4-4-4-4-4-4-4-7-7-7-7-7-7-7-7-7-7-7-7-7-7-7-7-9-9-9-9-9-9-9-9-|
Eb|----------------5-5-5-5-5-5-5-5-----------------7-7-7-7-7-7-7-7-|

PRE CHORUS 
Pm   * * * * * * *                   * * * * * * *  
eb|----------------------------------------------------------------|
Bb|----------------------------------------------------------------|
Gb|6-6-6-6-6-6-6-6-4~--------------2-2-2-2-2-2-2-2-4~--------------|
Db|6-6-6-6-6-6-6-6-4~--------------2-2-2-2-2-2-2-2-4~--------------|
Ab|4-4-4-4-4-4-4-4-2~--------------0-0-0-0-0-0-0-0-2~--------------|
Eb|----------------------------------------------------------------|

CHORUS      
Same as Intro

VERSE 2          4x
eb|----------------|
Bb|----------------|
Gb|6~--2~------4~--|
Db|6~--2~--2~--4~--|
Ab|4~--0~--2~--2~--|
Eb|--------0~------|

PRE CHORUS

CHORUS

VERSE 3  
Guitar 1         4x
eb|----------------|
Bb|----------------|
Gb|6~--2~------4~--|
Db|6~--2~--2~--4~--|
Ab|4~--0~--2~--2~--|
Eb|--------0~------|

Guitar 2        16x
eb|----------------|
Bb|0-4-5-0-4-5-4-5-|
Gb|----------------|
Db|----------------|
Ab|----------------|
Eb|----------------|

CHORUS

After the chorus singer repeats "still filled with you" and this comes then.
eb|--------------------------------|
Bb|--------------------------------|
Gb|2-2-2-2-2-2-2-2-2-2-2-2-2-2-2-2-|
Db|2-2-2-2-2-2-2-2-2-2-2-2-2-2-2-2-|
Ab|0-0-0-0-0-0-0-0-0-0-0-0-0-0-0-0-|
Eb|--------------------------------|

VERSE 4
Same as Verse 3 but
Guitar 1  2x
Guitar 2  8x

ENDING
Guitar 1
eb|----||
Bb|----||
Gb|----||
Db|2~--||
Ab|2~--||
Eb|0~--||

Guitar 2
eb|----||
Bb|0~--||
Gb|----||
Db|----||
Ab|----||
Eb|----||
Composição de Brandon Barnes / Chris Chasse / Joe Principe / Rise Against / Tim McIlrath
Colaboração e revisão:
  • Daniel Buonomo
3.188 exibições
    • ½ Tom
    • A
    • Bb
    • B
    • C
    • Db
    • D
    • Eb
    • E
    • F
    • F#
    • G
    • Ab
  • Adicionar à lista

    0 comentários

    Ver todos os comentários

    Conseguiu tocar?

    0 Tocaram 0 Ainda não

    Grave um vídeo tocando Anywhere But Here e nos envie!

    00:00 / 00:00
    Outros vídeos desta música
    Repetir Qualidade Automático
    Outros vídeos desta música
    00:00 / 00:00
    Automático

    Cifra Club Pro

    Aproveite o Cifra Club com benefícios exclusivos e sem anúncios
    Cifra Club Pro
    Aproveite o Cifra Club com benefícios exclusivos e sem anúncios
    OK