Cifra Club

Aprenda

Heaven Knows

Rise Against

Cifra: Principal (violão e guitarra)
tom: B
afinação padrão em GDAE, as cordas "e" e "B" não são usadas


intro (parte 1) - ambas as guitarras
|-6666666-----------------------------666666|
|-6666666--7777--7-6-4-2222--4--4-6-7-666666|
|-4444444--7777--7-6-4-2222--4--4-6-7-444444|
|----------5555--5-4-2-0000--2--2-4-5-------|

                            aqui é só guitarra solo (guitarra base deixa soar) 
|--8-8-8-8-8-8-8-8-8-8-8-8--99--1414141414--13--13-11-|
|--8-8-8-8-8-8-8-8-8-8-8-8----------------------------|
|--6-6-6-6-6-6-6-6-6-6-6-6--77--1212121212--11--11--9-|
|-----------------------------------------------------|

|-6666666-----------------------------666666|
|-6666666--7777--7-6-4-2222--4--4-6-7-666666|
|-4444444--7777--7-6-4-2222--4--4-6-7-444444|
|----------5555--5-4-2-0000--2--2-4-5-------|
                            
                            aqui é só guitarra solo (guitarra base deixa soar) 
|--8-8-8-8-8-8-8-8-8-8-8-8--99--1414141414--13--13-11-11-9|
|--8-8-8-8-8-8-8-8-8-8-8-8--------------------------------|
|--6-6-6-6-6-6-6-6-6-6-6-6--77--1212121212--11--11--9--9-7|
|---------------------------------------------------------|

intro (parte 2) 
                    (guitarra solo)
|-------------------999--111111--131313--141414--13-| 
|-777777777777777-----------------------------------|
|-777777777777777---777---9-9-9--111111--121212--11-| 
|-555555555555555-----------------------------------| 

verso (pode ser com apenas uma guitarra)
|-66666666666666-----------4--4------66666666666666666-9-8------| 
|-66666666666666-7--7-4--4-4--4-6--6-66666666666666666-----9-11-|
|-44444444444444-7--7-4--4-2--2-6--6-44444444444444444----------| 
|----------------5--5-2--2------4--4----------------------------| 

|-66666666666666-----------4--4------666666666-| 
|-66666666666666-7--7-4--4-4--4-6--6-666666666-| 
|-44444444444444-7--7-4--4-2--2-6--6-444444444-| 
|----------------5--5-2--2------4--4-----------| 
pré-refrão
|-------------------| 
|-77777777--99999999| 
|-77777777--99999999| 
|-55555555--77777777| 
refrão (solo)
|--------------------------------------------------------|
|-11111111--9-11111111--9-7777--4444-11111111--9-11111111|
|-11111111--9-11111111--9-7777--4444-11111111--9-11111111|
|--9-9-9-9--7--9-9-9-9--7-5555--2222--9-9-9-9--7--9-9-9-9|

|----9999--8-111111111---------------------------------------|
|--9-x--x--x-----------11111111--9-11111111--9-7777--4444--7-| 
|--9-7777--6--9-9-9-9--11111111--9-11111111--9-7777--4444--7-| 
|--7--------------------9-9-9-9--7--9-9-9-9--7-5555--2222--5-| 

refrão (base)
|--------------------------------------------------------|
|-11111111--9-11111111--9-7777--4444-11111111--9-11111111|
|-11111111--9-11111111--9-7777--4444-11111111--9-11111111|
|--9-9-9-9--7--9-9-9-9--7-5555--2222--9-9-9-9--7--9-9-9-9|

|------------------------------------------------------------|
|--9-7777--4444--------11111111--9-11111111--9-7777--4444--7-| 
|--9-7777--4444--------11111111--9-11111111--9-7777--4444--7-| 
|--7-5555--2222---------9-9-9-9--7--9-9-9-9--7-5555--2222--5-| 

intro (part 2)/verso/pre-refrão/refrão/introparte2(deixando soar)

final (solo)
|-634-496-63444444-9999-11111111-888888888--9999-8888-|
|-----------------------------------------------------|
|-412-274-41222222-7777--9-9-9-9-666666666--7777-6666-|
|-----------------------------------------------------|

|444444444--989--6-999911111111-88888888-9999-8888-44444444|
|----------------------------------------------------------|
|222222222--767--4-7777-9-9-9-9-66666666-7777-6666-22222222|
|----------------------------------------------------------|

|-9999--11111111-888888888------9999--8888--444444444-|
|-----------------------------------------------------|
|-7777---9-9-9-9-666666666------7777--6666--222222222-|
|-----------------------------------------------------|

|9999-8888--7-8-9-8-9-11-9-11-13-11-13-14--9999--8888--44444444|
|--------------------------------------------------------------|
|7777-6666--5-6-7-6-7--9-7--9-11--9-11-12--7777--6666--22222222|
|--------------------------------------------------------------|

|9999-8888--7-8-9-8-9-11-9-11-13-11-13-14--7-------4-|
|------------------------------------------7---4---4-|
|7777-6666--5-6-7-6-7--9-7--9-11--9-11-12--5~--4---2~|
|----------------------------------------------2~----|

final (base)
|----------------------------------------------------------------------|
|777777777-44444444-9999999999999999-77777777-44444444-999999999999-989|
|777777777-44444444-9999999999999999-77777777-44444444-999999999999-989|
|555555555-22222222-7777777777777777-55555555-22222222-777777777777-767| algumas vezes
Composição de Rise Against
Colaboração e revisão:
  • Jean Rengel
3.521 exibições
    • ½ Tom
    • A
    • Bb
    • B
    • C
    • Db
    • D
    • Eb
    • E
    • F
    • F#
    • G
    • Ab
  • Adicionar à lista

    0 comentários

    Ver todos os comentários

    Conseguiu tocar?

    0 Tocaram 0 Ainda não

    Grave um vídeo tocando Heaven Knows e nos envie!

    00:00 / 00:00
    Outros vídeos desta música
    Repetir Qualidade Automático
    Outros vídeos desta música
    00:00 / 00:00
    Automático

    Cifra Club Pro

    Aproveite o Cifra Club com benefícios exclusivos e sem anúncios
    Cifra Club Pro
    Aproveite o Cifra Club com benefícios exclusivos e sem anúncios
    OK