Cifra Club

Máquina do Tempo

Rosa de Saron

Cifra: Principal
exibições 210.262
Tom: D
[Violão 1]


          Bm        G         D          A
Eb|-------5-|-------5-|-------5-3-2-----------|
Bb|---3-----|---3-----|---3---------5-3-2-----|
Gb|-4---4---|-0---0---|-2---2-------------2---|
Db|---------|---------|-----------------------|
Ab|---------|---------|-----------------------|
Eb|---------|---------|-----------------------|


[Violão 2]


            Bm                   G                 D                    A
Eb|------------------|------------------|------------------|------------------|
Bb|------------------|------------------|------------------|------------------|
Gb|------------------|------------------|------------------|------------------|
Db|---0---4---0----4-|---0---4---0----4-|---0---4---0----4-|---4---0----4---0-|
Ab|-2---2---2----2---|------------------|-0---0---0----0---|-7---7----7---7---|
Eb|------------------|-3---3---3----3---|------------------|------------------|


 Bm     G                D         A
Cada minuto aqui é uma chance de provar o que eu mais quero
Bm       G           D                     A
E ainda se eu conseguisse uma máquina que parasse o tempo
 Bm       G            D
Você estaria ao meu alcance?
 A
Não importa, eu te espero
 Bm                 G                         D
Se eu pudesse escrever a história das minhas horas
           A
Uma a uma seria do seu lado
Bm                G                    D
Eu contaria todo dia uma história diferente
             A
Eu criaria frases pra sempre

G        A         Bm
Eu cantaria notas de clara esperança
G         A        Bm
E seu sorriso viraria poesia

 Bm     G                D     A
Cada minuto aqui é uma chance de provar o que eu mais quero
Bm       G           D                  A
E ainda se eu conseguisse uma máquina que parasse o tempo
 Bm       G            D
Você estaria ao meu alcance?
 A
Não importa, eu te espero
Bm             G              D
Eu criaria uma ONG com seu nome
                 A
Eu tocaria acordeon na sua janela
 Bm              G
Te pagaria um café na rue de La Paix
 D                  A
Te compraria um imóvel no Mairie d'Issy
 Bm                G                       D
Se eu tivesse o domínio do equilíbrio e pudesse voar
     A
Te traria a lua
 Bm              G
Dominaria o meu medo de altura
        D             A
E buscaria no espaço cada estrela

G       A         Bm
Inverteria o princípio da inércia
G          A          Bm
Eu encolheria a Terra e te daria

 Bm     G                D     A
Cada minuto aqui é uma chance de provar o que eu mais quero
Bm       G           D                  A
E ainda se eu conseguisse uma máquina que parasse o tempo
 Bm       G            D
Você estaria ao meu alcance?
 A                         Bm  G  D  A
Não importa, eu te espero

0 comentários

    mostrar mais comentários

    Conseguiu tocar?

    56tocaram2ainda não

    Grave um vídeo tocando Máquina do Tempo e mande pra gente!

    00:00 / 00:00
    outros vídeos desta música
    repetirqualidadeautomática
    Outro vídeos desta música
      00:00 / 00:00
      automática
      OK