Cifra Club

Put Your Lights On

Santana

Cifra: Versão 2 (violão e guitarra)
tom: Am
Intro
-|--------------------------------------------------------|
-|-13p12-10-------------8--------8------------------------|
-|----------------9-7-9------------/9-7--------7h9--------|
-|-------------------------------------------------10-10--|
-|--------------------------------------------------------|
-|--------------------------------------------------------|


Hey now, all ya sinners, put your lights on,
put your lights on
-|--------------|
-|-8------------|
-|---9-7----7h9-|
-|-------10-----|
-|--------------|
-|--------------|


Hey now
-|-----------|
-|-------8-8-|
-|-9-7-9-----|
-|-----------|
-|-----------|
-|-----------|


all ya lovers
-|-8p7-----------|
-|-----8---8h10--|
-|-------9-------|
-|---------------|
-|---------------|
-|---------------|


put your lights on
-|----------------------------------------------|
-|----------------------------------------------|
-|-/7-----5-7-----5-7-----5-----------------5---|
-|--------------------------7(5)--------5-7---7-|
-|-----------------------------(7)(5)-----------|
-|-----------------------------------(8)--------|

put your lights on
Hey now
all ya killers
-|-----------------|
-|-8-6---6---------|
-|-----9---/9-/9-7-|
-|-----------------|
-|-----------------|
-|-----------------|


put your lights on
-|-------------------------------------------|
-|-------------------------------------------|
-|-9-----------------------------------12h14-|
-|---10------------9-----10-----12-----------|
-|------12-/12-------------------------------|
-|-------------------------------------------|

put your lights on
Hey now
-|-----------|
-|-------8-8-|
-|-9-7-9-----|
-|-----------|
-|-----------|
-|-----------|


all ya children
-|-8p7-----------|
-|-----8---8h10--|
-|-------9-------|
-|---------------|
-|---------------|
-|---------------|


leave your lights on
-|-------------------|
-|-------------------|
-|-----12-12-12--h14-|
-|-/14---------------|
-|-------------------|
-|-------------------|


Better leave your lights on
Cause theres a monster
-|------------------------|
-|------------------------|
-|-14--------------12-----|
-|--------------------14--|
-|------------------------|
-|------------------------|


livin under my bed
-|--------------------------------|
-|-10-----------------------------|
-|----12-9----------------9-------|
-|---------12-12-10-12b14---10----|
-|-----------------------------12-|
-|--------------------------------|


Whispering in my ear
-|------------------------|
-|------------------------|
-|------------------------|
-|---------------7-10-7-7-|
-|-/7-7-7-7-7-10----------|
-|------------------------|


Theres an angel
With her hand on my head
-|---------------------------------------------------------|
-|-10------------------------------------------------------|
-|----12---------------------------------------------------|
-|-------12-12-10-12-12-12p10----10-14p10------10h12p10----|
-|----------------------------12----------12------------12-|
-|---------------------------------------------------------|


She say I got nothing to fear
-|-----------------------------------|
-|-----------------------------------|
-|-/7---/7---/7-5-7---7-5-----5h7p5--|
-|------------------------7--------7-|
-|-----------------------------------|
-|-----------------------------------|


Theres a darkness
-|------8---------------|
-|-8-10---10-10---10p8--|
-|--------------------9-|
-|----------------------|
-|----------------------|
-|----------------------|


living deep in my soul
-|-----------------------|
-|-----------------------|
-|-7b9-----9-r-r-r-r-7*--|
-|-----------------------|
-|-----------------------|
-|-----------------------|
*gradually release while picking

Still got a purpose to serve
-|--------------------------------|
-|--------------------------------|
-|--------------------------5-----|
-|----------------------5-7---7-7-|
-|-/7--/7--/7-7-7-7-7-7-----------|
-|--------------------------------|


So let your light shine
-|-------15-|
-|-15b17----|
-|----------|
-|----------|
-|----------|
-|----------|


deep into my hole
-|----------------12-------|
-|-17r15-13-15b17----13----|
-|----------------------14-|
-|-------------------------|
-|-------------------------|
-|-------------------------|


God don't let me lose my nerve
-|-------------------15b17-15b17-15b17-|
-|-15-15-15-17-17-17-------------------|
-|-------------------------------------|
-|-------------------------------------|
-|-------------------------------------|
-|-------------------------------------|


Don't let me lose my nerve.
-|--------------------------------------|
-|--------------------------------------|
-|-5-5-----6-6--------------------------|
-|-5-5-----6-6-----5-5-----3-3-3-3--2-2-|
-|-3-3-----4-4-----5-5-----3-3-3-3--2-2-|
-|(rythem guitar)--3-3-----1-1-1-1--0-0-|


solo
-|------------------------------------------------|
-|-----13------14---------------------------------|
-|-----------------------9h10h12-9h10p9-9h10p9--9-|
-|--------------------------------------------12--|
-|------------------------------------------------|
-|------------------------------------------------|



-|------------------------------------------------------
-|-----13wawa--14wawawa---------8-----------------------
-|-----------------------7-9-10---10-9-7-9---7--7b9r7---
-|--------------------------------------------10-----10-
-|------------------------------------------------------
-|------------------------------------------------------



E|-----------------------------------------------|
B|------------------------------------------8-10-|
G|-7----7-------------------------------7-9------|
D|---10---10--7--------------------7-10----------|
A|-------------10p7-----------7-10---------------|
E|-----------------10p8--8h10-******************-|
                            *for this part just
                             around with this scale


E|----------------------------------17p15-----17p15-----------|
B|-10wah---10wah---10wah---10wah---------17p15-----17p15------|
G|----------------------------------********************------|
D|------------------------------------------------------------|
A|------------------------------------------------------------|
E|------------------------------------------------------------|
                                  *played scratchy, with
                                   distortion and wah

E|-------12-------12-12-13-15-13-12-------|
B|-15b17----15b17-------------------15b17-|
G|----------------------------------------|
D|----------------------------------------|
A|----------------------------------------|
E|----------------------------------------| end solo


Hey now Hey now Hey now Hey now Hey now
-|--------------------------------------|
-|-8-6---6------------------------------|
-|-----9---/9-/9-7------/9-7------12h14-|
-|---------------------------10---------|
-|--------------------------------------|
-|--------------------------------------|



-|-----------|
-|-------8-8-|
-|-9-7-9-----|
-|-----------|
-|-----------|
-|-----------|


Woh oh
Hey Now
-|---------------------------------
-|-13-------13-12---13-12----------
-|-------12---------------12-12h14-
-|---------------------------------
-|---------------------------------
-|---------------------------------


Hey now Hey now Hey now Hey now
E|----------------------------|
B|----------------------------|
G|----------------12----------|
D|-12----12-12h14----12----12-|
A|----15----------------15----|
E|----------------------------|

Hey now
-|------8---------|
-|-8-10---10-8h10-|
-|----------------|
-|----------------|
-|----------------|
-|----------------|


all ya sinners
-|---------------------|
-|-8-------------------|
-|---7h9p7----7h9p7--7-|
-|---------10------10--|
-|---------------------|
-|---------------------|


put your lights on
-|-----------|
-|-----------|
-|-----------|
-|-----10----|
-|-/12----12-|
-|-----------|


put your lights on
-|--------------------------|
-|-10-----------------------|
-|----9-------------9-------|
-|------12-10-12b14---10----|
-|-----------------------12-|
-|--------------------------|


Hey now
-|------|
-|-8-10-|
-|------|
-|------|
-|------|
-|------|


all ya children
-|-8-8-8-8p7-----|
-|-----------8---|
-|-------------9-|
-|---------------|
-|---------------|
-|---------------|


leave your lights on
-|-----------------------|
-|----8-10-/10-10-/10-10-|
-|-/9--------------------|
-|-----------------------|
-|-----------------------|
-|-----------------------|

Better leave your lights on                             Cause theres a
monster
-|-10-12-----12-12-12-12-12-12-10-
-|--------------------------------
-|--------------------------------
-|--------------------------------
-|--------------------------------
-|--------------------------------


livin under my bed
E|--12-10-------------------------------------|
B|--------12-9--------------------------------|
G|-------------9---------------------------12-|
D|---------------12p10p9-------------12-14----|
A|-----------------------12p10---/14----------|
E|----------------------------12--------------|


Whispering in my ear
-|-----------------------------------------------------
-|-15p12h15p12h15p12h15p12h15p12h15p12h15p12-15b17-----
-|-----------------------------------------------------
-|-----------------------------------------------------
-|-----------------------------------------------------
-|-----------------------------------------------------



E|-15p12h15p12h15p1215p12-15b17--15b17----------12---|
B|------------------------------------------------15-|
G|---------------------------------------------------|
D|---------------------------------------------------|
A|---------------------------------------------------|
E|---------------------------------------------------|


There an angel
With her hand on my head
-|-12--10-----------------------------|
-|---------13-12-13-12-13-10----------|
-|-------------------------------12p9-|
-|------------------------------------|
-|------------------------------------|
-|------------------------------------|


She say I got nothing to fear
-|---------------------------------------------|
-|---------------------------------------------|
-|-----12-12-----12-12----14-12----------------|
-|-/14-------/14-------14-------14----12-------|
-|---------------------------------15----15-12-|
-|---------------------------------------------|


  la       la la ha    hey la la             ya gotta
-|------------------------------------------
-|---------------8--8-----------------------
-|-/9-------7-9-------------------/9-7------
-|-------------------------------------10---
-|------------------------------------------
-|------------------------------------------


shine like a star
E|-------------------------------------------|
B|-----------------------------8-8---8-10-10-|
G|----9-7----7--9-----------/9-----9---------|
D|--------10-----10p7---10-------------------|
A|-------------------------------------------|
E|-------------------------------------------|


   la             la la  ha      hey la la          ya gotta
-|-12-------------10-12--15--15----------------------------
-|--------------------------------------15b17--15b17-15b17-
-|---------------------------------------------------------
-|---------------------------------------------------------
-|---------------------------------------------------------
-|---------------------------------------------------------

 shine like a star                      then fade away
E|-12-15-15p12--12---12---------------12--------------------|
B|------------15--------13------13-15-----------------------|
G|-------------------------14-------------12-12-12-12h14-14-|
D|----------------------------------------------------------|
A|----------------------------------------------------------|
E|----------------------------------------------------------|
Composição de Erik Schrody
6 exibições
    • ½ Tom
    • Am
    • Bbm
    • Bm
    • Cm
    • C#m
    • Dm
    • Ebm
    • Em
    • Fm
    • F#m
    • Gm
    • G#m
  • Adicionar à lista

    0 comentários

    Ver todos os comentários

    Conseguiu tocar?

    0 Tocaram 0 Ainda não

    Grave um vídeo tocando Put Your Lights On e nos envie!

    00:00 / 00:00
    Outros vídeos desta música
    Repetir Qualidade Automático
    Outros vídeos desta música
    00:00 / 00:00
    Automático

    Cifra Club Pro

    Aproveite o Cifra Club com benefícios exclusivos e sem anúncios
    Cifra Club Pro
    Aproveite o Cifra Club com benefícios exclusivos e sem anúncios
    OK