Cifra Club

Clenched Fist

Sepultura

Cifra: Principal
exibições 1.524
Tom: E
(Effects)                                                   
Intro                                                        Play 2 times
|-----------||-----------------------------------------------------------||
|-----------||-----------------------------------------------------------||
|-----------||-----15------15------15-----15-----15-----15-----15-----15-||
|-----------||-----14------14------14-----14-----14-----14-----14-----14-||
|-----------||-----13------13------13-----13-----13-----13-----13-----13-||
|-----------||-0-0-----0-0-----0-0----0-0----0-0----0-0----0-0----0-0----||


Riff1
|--------------------------------------------0-------------------------------|
|--------------------------------------------0-------------------------------|
|----------------------------------------------------------------------------|
|-2---------3--6--5--2---------3--6--5--2---------3--6--5--2--------3--6--5--|
|-2---------3--6--5--2---------3--6--5--2---------3--6--5--2--------3--6--5--|
|-0---------1--4--3--0---------1--4--3--0---------1--4--3--0--------1--4--3--|


Verse                                        Play 2 times
|--------------------------------------------------------||
|--------------------------------------------------------||
|-----15-----15-----15-----15-----15-----15--------------||
|-----14-----14-----14-----14-----14-----14------3--6--5-||
|-----13-----13-----13-----13-----13-----13------3--6--5-||
|-0-0----0-0----0-0----0-0----0-0----0-0----0-0--1--4--3-||

Fill1
-------------------------------------------------------------------------
-------------------------------------------------------------------------
-------------------------------------------------------------------------
9-9-9-8-8-8-8-8-5-5-5-4-4-4-4-4-9-9-9-8-8-8-8-8-5-5-5-4-4-4-4-4--9--8----
7-7-7-6-6-6-6-6-3-3-3-2-2-2-2-2-7-7-7-6-6-6-6-6-3-3-3-2-2-2-2-2--7--6----
-------------------------------------------------------------------------

         Fill2
|-------||-------------------------------------------------------|
|-------||-------------------------------------------------------|
|-Riff2-||-------------------------------15-----15-----15-----15-|
|-2times||-2-------3-2------3-2----------14-----14-----14-----14-|
|-------||-2-------3-2------3-2----------13-----13-----13-----13-|
|-------||-0-------1-0------1-0------0-0----0-0----0-0----0-0----|

|---------------------------------------0--------------------------------|
|---------------------------------------0--------------------------------|
|------------------------------------------------------------------------|
|-2-------3-6-5-2--------3-6-5-2-----------------------------------3-6-5-|
|-2-------3-6-5-2--------3-6-5-2-----------------------------------3-6-5-|
|-0-------1-4-3-0--------1-4-3-0-----------------------------------1-4-3-|
            Riff3
||--------||---------------------------------------------------------------|
||--------||---------------------------------------------------------------|
||-Riff2--||---------------------------------------------------------------|
||-2-Times||---------------------------------------------------------------|
||--------||-7----7-7---10---7----7-7---10---7-----7-7---10---7---7-7---10-|
||--------||-5----5-5----8---5----5-5----8---5-----5-5----8---5---5-5---8--|

p.m______________________________________________________________________
|-------------------------------------------------------------------------|
|-------------------------------------------------------------------------|
|-------------------------------------------------------------------------|
|-------------------------------------------------------------------------|
|5-5-5-5-5-5-5-5-5-5-5-5-5-5-5-5-5-5-5-5-5-5-5-5-5-5-5-5-5-5-5-5-5-5-5-5--|
|3-3-3-3-3-3-3-3-3-3-3-3-3-3-3-3-3-3-3-3-3-3-3-3-3-3-3-3-3-3-3-3-3-3-3-3--|

|------------------------------------------------------------------------|
|------------------------------------------------------------------------|
|------------------------------------------------------------------------|
|-2--------(-2-)---------------------------------------------------------|
|-2--------(-2-)---------------------------------------------------------|
|-0--------(-0-)---------------------------------------------------------|

Interlude (I Quess..)                                          Play 2 Times
||---------------------------------------------------||---------------------|
||---------------------------------------------------||---------------------|
||---------------------------------------------------||---------------------|
||---------------------------------------------------||---------------------|
||-3---2----2---3---2----2---3---2----2-----10--9--5-||---------------------|
||-1---0-0--0---1---0-0--0---1---0-0--0---0-8---7--3-||---------------------|

Solo Riff                This Goes 4 (or 8 , can't remember) times
||--------------------------------------------------------------||
||--------------------------------------------------------------||
||--------------------------------------------------------------||
||-----2-------2-------2-------2-------2-------2--------3--6--5-||
||-----2-------2-------2-------2-------2-------2--------3--6--5-||
||-0-0-0---0-0-0---0-0-0---0-0-0---0-0-0---0-0-0---0-0--1--4--3-||

Outro
|------------------------------------------------------------------------|
|------------------------------------------------------------------------|
|------------------------------------------------------------------------|
|-3---------5---------3---------5-------3------5-------------------------|
|-3---------5---------3---------5-------3------5-------8-------7---------|
|-1---------3---------1---------3-------1------3-------6-------5---------|

|--------------------------------------------------------------------------|
|--------------------------------------------------------------------------|
|--------------------------------------------------------------------------|
|-3--------5-------3------5--------3--------5------------------------------|
|-3--------5-------3------5--------3--------5--------8----10---11----------|
|-1--------3-------1------3--------1--------3--------6-----8---9-----------|

|--------------------------------------------------|----------------------|
|--------------------------------------------------|----------------------|
|--------------------------------------------------|-and second time:-----|
|------------------------------------------8----7--|----------------------|
|-3-3-3-3-5----3-3-3-3-5----3-3-3-3-5------8----7--|----8-----10--11------|
|-1-1-1-1-3----1-1-1-1-3----1-1-1-1-3------6----5--|-...6-----8---9-------|
Acordes para:
    Composição: Max Cavalera / SepulturaColaboração e revisão:
    • Fábio Siqueira

    0 comentários

      mostrar mais comentários

      Conseguiu tocar?

      0tocaram0ainda não

      Grave um vídeo tocando Clenched Fist e mande pra gente!

      00:00 / 00:00
      outros vídeos desta música
      repetirqualidadeautomática
      Outro vídeos desta música
        00:00 / 00:00
        automática
        OK