Cifra Club

Slave New World

Sepultura

Cifra: Principal (violão e guitarra)
exibições 14.877
Tom: E
Afinação: D A D G B E 


[Intro]

E|---------------|
B|---------------|
G|---------------|
D|---------------|
A|--0---2-----3--|
E|--0---2-----3--|

[Riff 1]
E|----------------------------------|
B|----------------------------------|
G|----------------------------------|  [6X]
D|----------------------------------|
A|-----------------------------7/6--|
E|-0-0-0-0-0-0-0-0-0-0-0-0-0-0-7/6--|
  . . . . . . . . . . . . . . SL

E|---------------------------|
B|---------------------------|
G|---------------------------|
D|---------------------------|
A|--0---2---3-----0---3---6--|
E|--0---2---3-----0---3---6--|

*PLAY RIFF 1*

E|-------------------------------------------|
B|-------------------------------------------|
G|-------------------------------------------|
D|-------------------------------------------|
A|-0--1--4------0--1--4------0--1--4------1--|
E|-0--1--4--0-0-0--1--4--0-0-0--1--4--0-0-1--|
            . .          . .          . .
[Riff 2]
E|--------------------|
B|--------------------|
G|--------------------|
D|--------------------|
A|---------5-6-6------|
E|-0-1-1----H---------|
    H

[Riff 2]
E|--------------------------------|
B|--------------------------------|
G|--------------------------------|
D|--------------------------------|
A|-0-1-1--0-1-1--0-1-1--0-1-1-----|
E|-0-1-1--0-1-1--0-1-1--0-1-1--0--|
    H      H      H      H

[Riff 3]
E|---------------------------------------------|
B|---------------------------------------------|
G|---------------------------------------------|
D|---------------------------------------------|
A|-0-1-4-----0-1-4-----0-1-4-------------------|
E|-0-1-4-0-0-0-1-4-0-0-0-1-4-0-0-0-0-0-0-0-0-0-|
                             . . . . . . . . .

[Riff 4]
E|-------------------------------------------|
B|-------------------------------------------|
G|-------------------------------------------|
D|-7/8-8-8---7/8-8-8---7/8-8-8---7/8-8-8--7--|
A|-5/6-6-6---5/6-6-6---5/6-6-6---5/6-6-6--5--|
E|-------------------------------------------|


[Solo]

E|--------------------------------------------|
B|--------------------------------------------|
G|-8888-9999-11111111-12121212-11111111-9999--|
D|--------------------------------------------|
A|-6666-7777-9-9-9-9--10101010-9-9-9-9--7777--|
E|--------------------------------------------|

E|-11111111-12121212-14141414-15151515-14141414--|
B|-----------------------------------------------|
G|-8-8-8-8--9-9-9-9--11111111-12121212-11111111--|
D|-----------------------------------------------|
A|-----------------------------------------------|
E|-----------------------------------------------|

E|--------------------------------------------------------22-22-22-22-22-|
B|-7/8--8/7--7--10/11--11/10--10/11--11/8--8/7---------------------------|
G|-8/9--9/8--8--11/12--12/11--11/12--12/9--9/8--8\5/-21-21---------------|
D|-----------------------------------------------------------------------|
A|-----------------------------------------------------------------------|
E|-----------------------------------------------------------------------|


*PLAY RIFF 1*

END
E|-----------|
B|-----------|
G|-----------|
D|-----------|
A|-2--4---5--|
E|-0--2---3--|
Acordes para:
    Composição: SepulturaColaboração e revisão:
    • julio neto
    • Caio Bella

    0 comentários

      mostrar mais comentários

      Conseguiu tocar?

      2tocaram0ainda não

      Grave um vídeo tocando Slave New World e mande pra gente!

      00:00 / 00:00
      outros vídeos desta música
      repetirqualidadeAutomático
      Outro vídeos desta música
        00:00 / 00:00
        OK