Cifra Club

Slave New World

Sepultura

Cifra: Principal
exibições 14.462
Tom: E
INTRO
|---------------||
|---------------||
|---------------||
|---------------||
|--2---4-----5--||
|--0---2-----3--||

RIFFA
|----------------------------------||
|----------------------------------||
|----------------------------------||
|----------------------------------||
|-----------------------------9/8--||
|-0-0-0-0-0-0-0-0-0-0-0-0-0-0-7/6--||
  . . . . . . . . . . . . . . SL

|-------------------------||
|-------------------------||
|-------------------------||
|-------------------------||
|--2---4---5-----2---5/8--||
|--0---2---3-----0---3/6--||

PLAY RIFFA
|-------------------------------------------||
|-------------------------------------------||
|-------------------------------------------||
|-------------------------------------------||
|-2--3--6------2--3--6------2--3--6------3--||
|-0--1--4--0-0-0--1--4--0-0-0--1--4--0-0-1--||
           . .          . .          . .

|--------------------||
|--------------------||
|--------------------||
|--------------------||
|---------2-3-3------||
|-0-1-1------H-------||
     H

RIFF2
|--------------------------------||
|--------------------------------||
|--------------------------------||
|--------------------------------||
|-----3------3------3------3--2--||
|-0-1-1--0-1-1--0-1-1--0-1-1--0--||
     H      H      H      H

|---------------------------------------------||
|---------------------------------------------||
|---------------------------------------------||
|---------------------------------------------||
|-2-3-6-----2-3-6-----2-3-6-------------------||
|-0-1-4-0-0-0-1-4-0-0-0-1-4-0-0-0-0-0-0-0-0-0-||
                            . . . . . . . . .

|-----------------------------------------||
|-----------------------------------------||
|-----------------------------------------||
|-9/10-10--9/10-10---9/10-10--9/10-10--9--||
|-7/8--8---7/8--8----7/8--8---7/8--8---7--||
|-----------------------------------------||

SOLO RIFF
|----------------------------|---------------------------||
|----------------------------|---------------------------||
|----------------------------|---------------------------||
|----------------------------|---------------------------||
|----------------------------|---2--2-------2----2-------||
|--1-0--0-0-3/---0-0--0-0-3/-|-0-0--0-0-3/--0-0--0-0-3/--||
|
|-----------------------||
|-----------------------||
|-----------------------||
|-----------------------||
|-2-2--2-2--2-2--2-2-2--||
|-0-0--0-0--0-0--0-0-0--||

SOLO
|--------------------------------------------|
|--------------------------------------------|
|-8888-9999-11111111-12121212-11111111-9999--|
|--------------------------------------------|
|-6666-7777-9-9-9-9--10101010-9-9-9-9--7777--|
|--------------------------------------------|
|
|-11111111-12121212-14141414-15151515-14141414--|
|-----------------------------------------------|
|-8-8-8-8--9-9-9-9--11111111-12121212-11111111--|
|-----------------------------------------------|
|-----------------------------------------------|
|-----------------------------------------------|
|
|--------------------------------------------------------22-22-22-22-22-||
|-7/8--8/7--7--10/11--11/10--10/11--11/8--8/7---------------------------||
|-8/9--9/8--8--11/12--12/11--11/12--12/9--9/8--8\5/-21-21---------------||
|-----------------------------------------------------------------------||
|-----------------------------------------------------------------------||
|-----------------------------------------------------------------------||

outro (play over riffA)
|--------------|-------------|------------9-|--(9)--9------|
|-----11----11-|-----11---11-|-------11-----|----------11--|
|--12----------|-12----------|--12----------|--------------|
|--------------|-------------|--------------|--------------|
|--------------|-------------|--------------|--------------|
|--------------|-------------|--------------|--------------|
|
|--------9------|--------9-----|-------9----|-------9----9-|
|----11------11-|-----11---11--|----11---11-|----11---11---|
|-12------------|-12-----------|-12---------|-12-----------|
|---------------|--------------|------------|--------------|
|---------------|--------------|------------|--------------|
|---------------|--------------|------------|--------------|
|
|-------9-----|-------9----|-------9----|-------9-------|
|----11----11-|------11----|----11---11-|----11---11-11-|
|-12----------|-12---------|-12---------|-12------12-12-|
|-------------|------------|------------|---------------|
|-------------|------------|------------|---------------|
|-------------|------------|------------|---------------|
|
|-------9----|-----------------|-------9----|-----9--9--9--9-|
|----11---11-|----11-11--11-11-|----11---11-|----11-11-11-11-|
|-12---------|-12--------------|-12---------|-12-------------|
|------------|-----------------|------------|----------------|
|------------|-----------------|------------|----------------|
|------------|-----------------|------------|----------------|

|-----------|
|-----------|
|-----------|
|-----------|
|-2--4---5--|
|-0--2---3--|
Acordes para:
    Composição: SepulturaColaboração e revisão:
    • Caio Bella

    0 comentários

      mostrar mais comentários

      Conseguiu tocar?

      1tocaram0ainda não

      Grave um vídeo tocando Slave New World e mande pra gente!

      00:00 / 00:00
      outros vídeos desta música
      repetirqualidadeautomática
      Outro vídeos desta música
        00:00 / 00:00
        automática
        OK