Cifra Club

Slave New World

Sepultura

Tab de baixo: Versão 3
Selo Cifra Club: esta cifra foi revisada para atender aos critérios oficiais da nossa Equipe de Qualidade.
tom: Afinação:
Tabbed by Lucas

intro (only guitar)
F|---------------|--------------------------------|
C|-2----5----5--.|.------------------------------.|
G|-2----5----5--.|.------------------------------.|
D|-0----2----3---|--0-0-0-0-0-0-0-0-0-0-0-0-7\6---|
      4x
now comes rest of band
Riff1 4x
|-------------------------------|
|-------------------------------|
|-------------------------------|
|-0-0-0-0-0-0-0-0-0-0-0-0-7\6---|

break 2x
|------------------------------------|
|------------------------------------|
|------------------------------------|
|-0-00-2-22-3-33-3-33-0-00-3-33-6-66-|

Riffi1 ("face -the enemy...")

Riffi 2
|-----------------------|---------------------------|
|.---------------------.|---------------------------|
|.---------------------.|---------------------------|
|-0-1-4--000--0-1-4-000-|-0-00-0-00-0-0-0-0-0-0-0-0-|
   3x
Riffi 3 2x
|---------------------------------------------------|
|--------2-3-3------2-3-3-------2-3-3--------2-3-3--|
|---------------------------------------------------|
|-0-1-1-------0-1-1-------0-1-1--------0-1-1--------|

Riffi4 4x ("you censor what we breath...")
|-------------------------------------|
|-------------------------------------|
|-------------------------------------|
|-0h1-1-1--0h1-1-1-0h1-1-1-0h1-1-1-0~-|

Riffi 5 2x
|----------------------------------------|
|.--------------------------------------.|
|.--------------------------------------.|
|-0-1-4--00-0-1-4--00-0-1-4-00-00000000--|

Riffi 4 4x

Guitar fill 4x
Riffi6/guitar solo (repeat as many times as needed)
-------------------------------------------------------------|
-------------------------------------------------------------|
-------------------------------------------------------------|
-00-0-0-3/--00-0-0-3/--00-0-0-3/-00-0-0-3/-------------------|

Guitar solo 2
|-----------------------------------------|
|-----------------------------------------|
|-----------------------------------------|
|-00-0-0-0--00-0-0-0--00-0-0-0--00-0-0-0--|

Riffi1 8x

Ending
|-------|
|-------|
|-------|
|-0-1-4-|   Enjoy!
Outros vídeos desta música
    284 exibições

    Afinação da cifra

    Afinador online

    0 comentários

    Ver todos os comentários

    Conseguiu tocar?

    0Tocaram0Ainda não

    Grave um vídeo tocando Slave New World e nos envie!

    Toque também

    1. Imagem do artista PanteraWalk Pantera
    2. Imagem do artista Judas PriestBreaking The Law Judas Priest
    3. Imagem do artista SlayerRaining Blood Slayer
    4. Imagem do artista KreatorViolent Revolution Kreator

    Entre para o Cifra Club PRO

    Tenha acesso a benefícios exclusivos no App e no Site

    • Chega de anúncios

    • Badges exclusivas

    • Mais recursos no app do Afinador

    • Atendimento Prioritário

    • Aumente seu limite de lista

    • Ajude a produzir mais conteúdo

    Cifra Club Pro

    Aproveite o Cifra Club com benefícios exclusivos e sem anúncios
    Cifra Club Pro
    Aproveite o Cifra Club com benefícios exclusivos e sem anúncios
    OK