Cifra Club

Refuse/Resist

Sepultura

Tab de baixo: Principal
exibições 6.553
Afinação: (D, G, D, G)

Intro:
||-------------------------||
||*-----------------------*|| 4x
||*-----------------------*||
||---1--1--1--1--0---------||
                                      
||----------------------------------------|
||*--------------------------------------*| 8X
||*--------------------------------------*|
||---6--6--6--6--0--6--6--6--6--0--6--0---|

||-------------------|--------------------|--------------------|--------------------------||
||*------------------|--------------------|--------------------|-------------------------*||
||*1-----4-----7--7--|--1-----4-----7--7--|--1-----4-----7--7--|-------------------------*||
||-------------------|--------------------|--------------------|-0-----0-----0-----0--0---||

Verso:
||-----------------|-------------||
||*----------------|------------*|| 8x
||*----------------|------------*||
||--0--0--0--0--0--|----1--2--3--||

||----------------------------------------||
||*--------------------------------------*|| 4x
||*--------------------------------------*||
||---6--6--6--6--0--6--6--6--6--0--6--0---||

Refrão:
||---------------------------------|-----------------------------|| 
||---------------------------------|-----------------------------|| 2x
||---------------------------------|-----------------------------||
||8--8--8--8--8-----4--4--4-----2--|--6--6--6--6--6-----4-----0--||

Base do solo:
||---------------------------------------------------||
||*-------------------------------------------------*|| 8x
||*-------------------------------------------------*||
||--2--2--2--2--2--2--2--2--2--2--2--2--2--2--2--4---||

||------------------------------------------------||
||*----------------------------------------------*|| 4x
||*-6--5-----5--------------6--5-----5--5--5--5--*||
||--------------5--4-----4------------------------||

||----------------------------------------||
||*--------------------------------------*|| 4x
||*--------------------------------------*||
||---6--6--6--6--0--6--6--6--6--0--6--0---||

Verso 8x

Refrão


||----------------------------------------||
||*--------------------------------------*|| 8x
||*--------------------------------------*||
||---6--6--6--6--0--6--6--6--6--0--6--0---||

Outro          
||-------------------------||
||*-----------------------*|| 5x
||*-----------------------*||
||---1--1--1--1--0---------||




_______________________________________________________
Composição: Max Cavalera / SepulturaColaboração e revisão:
  • Hildo Junior

0 comentários

    mostrar mais comentários

    Conseguiu tocar?

    4tocaram0ainda não

    Grave um vídeo tocando Refuse/Resist e mande pra gente!

    00:00 / 00:00
    outros vídeos desta música
    repetirqualidadeautomática
    Outro vídeos desta música
      00:00 / 00:00
      automática
      OK