Cifra Club

Aprenda

The Hunt

Sepultura

Cifra: Principal (violão e guitarra)
tom: A
  A - Intro                            B - Pre-verse
e:------------------------------------|------------------------------------|
B:------------------------------------|------------------------------------|
G:------------------------------------|------------------------------------|
d:------------------------------------|------------------------------------|
A:---------1-----------------1--------|---0--0--1--0--1--0--1--0--1-----1--|
D:0--2--3-----------0--2--3-----2--3--|0-----------------------------3-----|
 
 
                                     
  We went to town on tuesday night...
  C - Verse
e:----------------------------------|
B:----------------------------------|
G:11----11----11----11----10--------|
d:9-----9-----9-----9-----9-----12--|
A:9-----9-----9-----9-----9-----9---|
D:9-----9-----9-----9-----9-----9---|
  B5                   B5(addF) Bm
 
 
  You'll pay the price for my own sweet brother and what he has become...
  D - Alternative Verse
e:---------------------------------------------------------------------------|
B:5--5--5--5--5--5--5--5-/8--8--8--8-\3--3--3--3--5--5--5--5--5--5--5--5-/8--|
G:5--5--5--5--5--5--5--5-/8--8--8--8-\3--3--3--3--5--5--5--5--5--5--5--5-/8--|
d:5--5--5--5--5--5--5--5-/8--8--8--8-\3--3--3--3--5--5--5--5--5--5--5--5-/8--|
A:3--3--3--3--3--3--3--3-/6--6--6--6-\1--1--1--1--3--3--3--3--3--3--3--3-/6--|
D:---------------------------------------------------------------------------|
  C                       D#          A#          C                       D#
 
 
 
                         E - Alternative Pre-verse
e:----------------------|---------------------------------------------------|
B:8--8--8-/10-10-10-10--|---------------------------------------------------|
G:8--8--8-/10-10-10-10--|---------------------------------------------------|
d:8--8--8-/10-10-10-10--|---------------------------------------------------|
A:6--6--6-/8--8--8--8---|---------------1--------------0--------1-----1--0--|
D:----------------------|0--------2--3--------------0-----2--3--------------|
           F
 
 
  No police, no summons, no courts of law! No procedures, no rules of war! No
  F - Chorus
e:---------------------------------------------------------------------------|
B:------------------------r(5)--r(5)--5-----r(5)---r(5)---5-----r(8)---r(8)--|
G:------------------------r(5)--r(5)--5-----r(5)---r(5)---5-----r(8)---r(8)--|
d:5-----------------------r(5)--r(5)--5-----r(5)---r(5)---5-----r(8)---r(8)--|
A:5-----------------------r(3)--r(3)--3-----r(3)---r(3)---3-----r(6)---r(6)--|
D:5--------------------------------------------------------------------------|
  G5                      C                                     D#
 
 
 
   mitigating circumstance...
                              G - Break
e:---------------------------|------------------------------------|
B:-8-----r(8)---r(8)---8-----|------------------------------------|
G:-8-----r(8)---r(8)---8-----|------------------------------------|
d:-8-----r(8)---r(8)---8-----|7-H9-P7-----5-H7-P5-----3-H5-P3-----|
A:-6-----r(6)---r(6)---6-----|7-----7-----5-----5-----3-----3-----|
D:---------------------------|7-----7-----5-----5-----3-----3-----|
                              A5          G5          F5
 
 
  And we could spend our whole lives waiting for some thunderbolt to come...
  H - Post-verse
e:---------------------------------------------------------------------------|
B:---------------------------------------------------------------------------|
G:---------------------------------------------------------------------------|
d:6-----------8-----------5-----------6-----------6-----------8-----------5--|
A:6-----------8-----------5-----------6-----------6-----------8-----------5--|
D:6-----------8-----------5-----------6-----------6-----------8-----------5--|
  G#5         A#5         G5          G#5         G#5         A#5         G5
 
 
                    Unless we make our own...
 
e:---------------------------------------------------------------------------|
B:---------------------------------------------------------------------------|
G:---------------------------------------------------------------------------|
d:---------6-----------1--------1-/5--------r(5)--r(5)--r(5)--6--------r(6)--|
A:---------6-----------1--------1-/5--------r(5)--r(5)--r(5)--6--------r(6)--|
D:---------6-----------1--------1-/5--------r(5)--r(5)--r(5)--6--------r(6)--|
                       D#5         G5       G5                G#5
 
 
 
 
e:------------------------------------------------|
B:------------------------------------------------|
G:------------------------------------------------|
d:r(6)--r(6)--5--------r(5)--r(5)--r(5)--6--------|
A:r(6)--r(6)--5--------r(5)--r(5)--r(5)--6--------|
D:r(6)--r(6)--5--------r(5)--r(5)--r(5)--6--------|
              G5                         G#5
 
 
 
  I - End
e:--------------------------------------------------------------|
B:--------------------------------------------------------------|
G:--------------------------------------------------------------|
d:r(6)--r(6)--8--------r(5)--r(5)--7-------r(5)--r(5)--5--------|
A:r(6)--r(6)--8--------r(5)--r(5)--7-------r(5)--r(5)--3--------|
D:r(6)--r(6)--8--------r(5)--r(5)--7-------r(5)--r(5)-----------|
  G#5         A#5      G5          A5      G5          C5
Composição de Justin Sullivan / New Model Army / Robert Heaton
Colaboração e revisão:
  • Caio Bella
5.073 exibições
    • ½ Tom
    • A
    • Bb
    • B
    • C
    • Db
    • D
    • Eb
    • E
    • F
    • F#
    • G
    • Ab
  • Adicionar à lista

    0 comentários

    Ver todos os comentários

    Conseguiu tocar?

    0 Tocaram 0 Ainda não

    Grave um vídeo tocando The Hunt e nos envie!

    00:00 / 00:00
    outros vídeos desta música
    repetir qualidade Automático
    Outros vídeos desta música
    00:00 / 00:00
    Automático

    Cifra Club Pro

    Aproveite o Cifra Club com benefícios exclusivos e sem anúncios
    Cifra Club Pro
    Aproveite o Cifra Club com benefícios exclusivos e sem anúncios
    OK