Enviar cifraEntrar

Disasterpieces

Slipknot

Cifra: Principal
exibições 3.918
Tom: B
Tuning: B F# B E G# C#

   = Harmonic
   .  = Palm Mute
   p  = Pull-Off
   \  = Slide Down
   '  = Tremolo Pick
   ~  = Let Ring
   x  = Mute
   b  = Bend
   r  = Release Bend
  = Artificial Harmonic


GUITAR ONE:

Riff A (16x) (0:00):

|---------------------------------------------|
|--------------------------4------------------|
|---------------------------------------------|
|---------------------------------------------|
|---------------------------------------------|
|---------------|



Riff B (4x) (0:36):

|-----------------------------|-----------------------------|
|-----------------------------|-----------------------------|
|-----------------------------|-----------------------------|
|-----0-----1-----1p0-2p0-4\1-|-----0-----1-----1p0-2p0-3\1-|
|-----0-----1-----1p0-2p0-4\1-|-----0-----1-----1p0-2p0-3\1-|
|-0-0-0-0-0-1-0-0-1p0-2p0-4\1-|-0-0-0-0-0-1-0-0-1p0-2p0-3\1-|

  . .   . .   . .               . .   . .   . .


Riff C (2x) (0:54):

|------------------------|------------------------|
|------------------------|------------------------|
|------------------------|------------------------|
|------------------------|------------------------|
|------------------------|------------------------|
|-0-1-0--1p0-0-2p0-0-4\1-|-0-1-0--1p0-0-2p0-0-3\1-|

  ' '                      ' '


Riff D (4x) (1:01) (first 4 times played, let 7th chord ring):

|----------------------------|----------------------------|
|----------------------------|----------------------------|
|----------------------------|----------------------------|
|-0-0-0-1-1-1-0--1p0-2p0-4\1-|-0-0-0-1-1-1-0--1p0-2p0-3\1-|
|-0-0-0-1-1-1-0--1p0-2p0-4\1-|-0-0-0-1-1-1-0--1p0-2p0-3\1-|
|-0-0-0-1-1-1-0--1p0-2p0-4\1-|-0-0-0-1-1-1-0--1p0-2p0-3\1-|



Riff E (2x) (1:21):

|--------|-------------------------|
|--------|-11--12-----------11--12-|
|--------|--x---x------------x---x-|
|-0-1-0~-|--8---9------------8---9-|
|-0-1-0~-|-------------------------|
|-0-1-0~-|---------0--1--0---------|

            '   '  '  '      '   '


Riff F (4x) (1:36):

|-------------------------------|
|-x---x-x---x-x--x---x--x---x---|
|-9br-9-9br-9-9--9br-9-10br-9br-|
|-------------------------------|
|-------------------------------|
|-------------------------------|



Riff G (2x) (1:45):

|----------------------------|----------------------------|
|----------------------------|----------------------------|
|----------------------------|----------------------------|
|-1-1-1-2-2-2-1--1p0-2p0-4\1-|-1-1-1-2-2-2-1--1p0-2p0-3\1-|
|-1-1-1-2-2-2-1--1p0-2p0-4\1-|-1-1-1-2-2-2-1--1p0-2p0-3\1-|
|-1-1-1-2-2-2-1--1p0-2p0-4\1-|-1-1-1-2-2-2-1--1p0-2p0-3\1-|



Riff H (2x) (1:53):

|-------------------------|
|-x---x-x---x--x---x--x---|
|-9br-9-9br-9--9br-9-10br-|
|-------------------------|
|-------------------------|
|-------------------------|



Play RIFF B (4x) (1:58)
Play RIFF E (2x) (2:15)


Riff I (4x) (2:33):
|----|
|----|
|----|
|-0~-|
|-0~-|
|-0~-|


Riff J (8x) (2:42) (PM):

|--------------------|
|--------------------|
|--------------------|
|--------------------|
|----------------|
|------0-3-4-1-6-8-9-|

               ' '


Riff K (4x) (3:01):

|--------------------|
|--------------------|
|--------------------|
|------0-3-4-1-6-8-9-|
|--0-3-4-1-6-8-9-|
|------0-3-4-1-6-8-9-|

               ' '


Play RIFF K (4x) (3:11) (Without Tremolo Picking)
Play RIFF K (4x) (3:19) (Palm Muted with Tremolo Picking)
Play RIFF F (3x) (3:28), then again (12x) (3:37)


Riff L (7x) (4:04):     End with (4:19):

|-----------------------|------|
|-x---x---x--x---x--x---|--|
|-9br-9br-9--9br-9-10br-|--|
|-----------------------|------|
|-----------------------|------|
|-----------------------|------|

                            '


Play RIFF K (11x) (4:21) (Palm Muted with Tremolo Picking)


Riff M (2x) (4:44):
|------------|
|------------|
|------------|
|------0-3-4-|
|--0-3-4-|
|------0-3-4-|
       . . .


Play RIFF K (8x) (4:48) (Without Tremolo Picking; 8th time play Palm Muted)


------------------------------------------------------------------------------


GUITAR TWO:

Riff A (0:09):
 (1x)  (4x)

|----|------------------------------|
|----|------------------------------|
|----|------------------------------|
|----|------------6br---------------|
|----|------------------------------|
|-1/-|-0-0-0--0-0------0-0-0--1-1-1-|

       . .    . .      . .    . . .


Riff B (4x) (0:18):

|---------------------------------|---------------------------------|
|---------------------------------|---------------------------------|
|------------14br-----------------|------------14br-----------------|
|-------------x-------------------|-------------x-------------------|
|------------12br-----------------|------------12br-----------------|
|-0-0-0--0-0------0-0-1p0-2p0-4p3-|-0-0-0--0-0------0-0-1p0-2p0-4p2-|

  . .    . .      . .               . .    . .      . .


Riff C (4x) (0:36):

|-----------------------------|-----------------------------|
|-----------------------------|-----------------------------|
|-----------------------------|-----------------------------|
|-----0-----1-----1p0-2p0-4\1-|-----0-----1-----1p0-2p0-3\1-|
|-----0-----1-----1p0-2p0-4\1-|-----0-----1-----1p0-2p0-3\1-|
|-0-0-0-0-0-1-0-0-1p0-2p0-4\1-|-0-0-0-0-0-1-0-0-1p0-2p0-3\1-|

  . .   . .   . .               . .   . .   . .


Riff D (1x) (0:54):
|-------|
|-------|
|-------|
|-0-1-0-|
|-0-1-0-|
|-0-1-0-|
  ' '


Riff E (4x) (1:01) (First 4 times played, let 7th chord ring):

|----------------------------|----------------------------|
|----------------------------|----------------------------|
|----------------------------|----------------------------|
|-0-0-0-1-1-1-0--1p0-2p0-4\1-|-0-0-0-1-1-1-0--1p0-2p0-3\1-|
|-0-0-0-1-1-1-0--1p0-2p0-4\1-|-0-0-0-1-1-1-0--1p0-2p0-3\1-|
|-0-0-0-1-1-1-0--1p0-2p0-4\1-|-0-0-0-1-1-1-0--1p0-2p0-3\1-|



Riff F (2x) (1:21):

|--------|---------------------|
|--------|---------------------|
|--------|-3--8-----------3--8-|
|-0-1-0~-|-x--x-----------x--x-|
|-0-1-0~-|-1--6-----------1--6-|
|-0-1-0~-|-------0--1--0-------|

           '  '  '  '     '  '


Riff G (2x) (1:36):

|--------------------------------|--------------------------------|
|--------------------------------|--------------------------------|
|--------------------------------|--------------------------------|
|--------------------------------|--------------------------------|
|--------------------------------|--------------------------------|
|-0-0-0-1-1-1-0--1p0-0-2p0-0-4\1-|-0-0-0-1-1-1-0--1p0-0-2p0-0-3\1-|



Riff H (2x) (1:45):

|----------------------------|----------------------------|
|----------------------------|----------------------------|
|----------------------------|----------------------------|
|-1-1-1-2-2-2-1--1p0-2p0-4\1-|-1-1-1-2-2-2-1--1p0-2p0-3\1-|
|-1-1-1-2-2-2-1--1p0-2p0-4\1-|-1-1-1-2-2-2-1--1p0-2p0-3\1-|
|-1-1-1-2-2-2-1--1p0-2p0-4\1-|-1-1-1-2-2-2-1--1p0-2p0-3\1-|



Riff I (2x) (1:53):

|---------------------|
|---------------------|
|---------------------|
|---------------------|
|---------------------|
|-0-0-0-1-1-1-0--0--0-|



Play RIFF C (4x) (1:58)
Play RIFF F (2x) (2:15)


Riff J (12x) (2:33):
|----|
|----|
|----|
|-0~-|
|-0~-|
|-0~-|


Riff K (4x) (3:01):

|--------------------|
|--------------------|
|--------------------|
|------0-3-4-1-6-8-9-|
|--0-3-4-1-6-8-9-|
|------0-3-4-1-6-8-9-|

               ' '


Play RIFF K (4x) (3:11) (Without Tremolo Picking)
Play RIFF K (4x) (3:19) (Palm Muted with Tremolo Picking)


Riff L (3:28):
|----|
|----|
|----|
|-0~-|
|-0~-|
|-0~-|


Riff M (4x) (3:46):

|---------------|
|---------------|
|---------------|
|---------------|
|---------------|
|-0-0-0-3-3-3-2-|

  . . . . . . .


Riff N (11x) (3:55) (After 9 times played, don't play Palm Muted):

|------------------------------|
|------------------------------|
|------------------------------|
|------------------------------|
|------------------------------|
|-0-0-0-3-3-3-2--5-5-5-3-3-7-7-|

  . . . . . . .  . . . . . . .


Riff O (1x) (4:19):
|-----|
|-----|
|-----|
|-----|
|-----|
|-22\-|


Play RIFF K (11x) (4:21) (Palm Muted with Tremolo Picking)


Riff P (2x) (4:44):
|------------|
|------------|
|------------|
|------0-3-4-|
|--0-3-4-|
|------0-3-4-|
       . . .


Play RIFF O (1x) (4:48)
Play RIFF K (8x) (4:48) (Without Tremolo Picking; 8th time play Palm Muted)
  • 1
  • 2
  • 3
  • 4
  • 5
  • 6
  • 7
  • 8
  • 9
  • 10
  • 11
  • 12
    Acordes para:

      0 comentários

        mostrar mais comentários

        Conseguiu tocar?

        0tocaram0ainda não

        Grave um vídeo tocando Disasterpieces e mande pra gente!

        00:00 / 00:00
        outros vídeos desta música
        repetirqualidadeautomática
        • automática
        Outro vídeos desta música
          00:00 / 00:00
          automática
          • automática
          Acordes para:violão e guitarra
          dificuldadeexibiçõescontribuições
          1 versão de Tab de baixoexibiçõescontribuições
          1 versão de Guitar Proformatodownloadscontribuição
          fecharplay/pause subir/descer velocidade
            Acordes para:violão e guitarra
            acordes
            fechar
            OK