Cifra Club

You Could Be Happy

Snow Patrol

Tab de baixo: Principal
exibições 872
0.35
G|--------------|
D|--------------| X2
A|-8~---3~---1~-|
E|--------------|

1.09
G|-----------------|
D|-----------------| X2
A|-10~---12~---13~-|
E|-----------------|

1.44
G|--------------|
D|--------------| X2
A|-8~---3~---1~-|
E|--------------|

2.01
G|-----------------|
D|-----------------| X4
A|-10~---12~---13~-|
E|-----------------|

That’s what I think it goes like.
Please rate it and email me if you have any problems, *

Adam Vaughan

0 comentários

    mostrar mais comentários

    Conseguiu tocar?

    0tocaram0ainda não

    Grave um vídeo tocando You Could Be Happy e mande pra gente!

    00:00 / 00:00
    outros vídeos desta música
    repetirqualidadeautomática
    Outro vídeos desta música
      00:00 / 00:00
      automática
      OK