Cifra Club

Teenage Riot

Sonic Youth

Tab de baixo: Principal
Selo Cifra Club: esta cifra foi revisada para atender aos critérios oficiais da nossa Equipe de Qualidade.
tom: Afinação:
intro:

G---------
D--5------
A-------7-
E---------

1:28 -->  

G-----------------------
D------------5--5--5----
A-----------------------
E--3------------------3-

then when the drums come in, she starts playing:

G---------------------------------------------------------------
D--5-5-5-5-5-5-5-5-5-5-5-5-5-5-5-5-5-5-7--7-7-7-7-7-7-7-7-7-7-7-
A---------------------------------------------------------------
E---------------------------------------------------------------

sometimes move down to a D (5th fret A) after the A note (7th fret D).

chorus:
              
G-------------------------------------------------------------------------
D--5-5-5-5-5-5-5-5-5-5-5-5-5-\12-12-12-12-12-12-12-12-12-/5-5-5-5-5-5-5-5-
A-------------------------------------------------------------------------
E-------------------------------------------------------------------------

break:

G--------------
D--5-5-5-5-5-5- etc
A--------------
E--------------

then back to main riff w/ lots of slides and whatnot on the D string
that i don't want to figure out. 

and back to the verse/chorus. i think you can guess which note to end on. 
off the streets now, back on the road...
Outros vídeos desta música
    920 exibições

    Afinação da cifra

    Afinador online

    0 comentários

    Ver todos os comentários

    Entre para o Cifra Club PRO

    Tenha acesso a benefícios exclusivos no App e no Site

    • Chega de anúncios

    • Badges exclusivas

    • Mais recursos no app do Afinador

    • Atendimento Prioritário

    • Aumente seu limite de lista

    • Ajude a produzir mais conteúdo

    Cifra Club Pro

    Aproveite o Cifra Club com benefícios exclusivos e sem anúncios
    Cifra Club Pro
    Aproveite o Cifra Club com benefícios exclusivos e sem anúncios
    OK