Cifra Club

Wish Fulfillment

Sonic Youth

Cifra: Principal (violão e guitarra)
Selo Cifra Club: esta cifra foi revisada para atender aos critérios oficiais da nossa Equipe de Qualidade.
tom: B
This is the tablature of the first guitar only. The second guitar
is so much noisy that is very very hard to figure it out...



  C                             G
e|----------------------------------------------------------------\
B|----------------------------------------------------------------|
G|----------------------------------------------------------------|
D|-----5--4----------5--4----------2--4--2-4------------------2---|
A|-2/3--------3/2/3---------3-----2------------2---------2--------|
E|-------------------------------3----------------3---------------/
      I see your wishes on the wall and ....

  C                             G
e|----------------------------------------------------------------\
B|----------------------------------------------------------------|
G|----------------------------------------------------------------|
D|-----5--4----------5--4----------2-4--2-4---4---4---4-----------|
A|-2/3--------3/2/3---------3-----2-------------------------------|
E|-------------------------------3--------------------------------/
      I see you run to make a call putting ....
      
G5           G5
What's real? What ...
F#5 E5              F#5 E5
 I ain't turning my ...
G5                 G5
Where're you goin'? ...
F#5 E           F#5 E5
 Making wishes, ...

F#5 (II)                        G5 (II)
It might be simple it ...
F#5 (II)                 G5 (II)
I might be ...
F#5 (II)                   G5 (II)
You might be ...
              F#5 (II)              G5 (II)
The way your eyes just ...

F#5 (II)                      G5 (II)
It's such a ...
F#5 (II)                 G5 (II)
Wish fulfillment ....
F#5 (II)                    G5 (II)
I don't believe you
             F#5 (II)       G5 (II)
Now i can't hear a ...

  E5               F#5      B5
e|------------------------------------\
B|------------------------------------|
G|-9-9-9-9-9-9------11--------4-------|
D|-9-9-9-9-9-9------11--------4-------|
A|-7-7-7-7-7-7------9---------2-------|
E|------------------------------------/

  C                             G
e|----------------------------------------------------------------\
B|----------------------------------------------------------------|
G|----------------------------------------------------------------|
D|-----5--4----------5--4----------2--4--2-4------------------2---|
A|-2/3--------3/2/3---------3-----2------------2---------2--------|
E|-------------------------------3----------------3---------------/
      I see you shaking in the light ....

  C                             G
e|----------------------------------------------------------------\
B|----------------------------------------------------------------|
G|----------------------------------------------------------------|
D|-----5--4----------5--4----------2-4--2-4---4---4---4-----------|
A|-2/3--------3/2/3---------3-----2-------------------------------|
E|-------------------------------3--------------------------------/
        The others they're not quite so ....


G5             G5
Shake it baby, come ...
F#5 E5                   F#5 E5
 Just seen ...
G5              G5
Don't doubt it, ...
F#5 E5            F#5 E5
 I can't stand it ...

F#5 (II)                 G5 (II)
It's my ...
F#5 (II)                        G5 (II)
You look so pretty ...
F#5 (II)                      G5 (II)
I'm still on ...
            F#5 (II)       G5 (II)
In spite of ...

F#5 (II)                    G5 (II)
We're only blood on ...
F#5 (II)                     G5 (II)
You painted ...
F#5 (II)                   G5 (II)
Come wish ...
          F#5 (II)              G5 (II)
Don't you know you ...

  E5               F#5      B5
e|------------------------------------\
B|------------------------------------|
G|-9-9-9-9-9-9------11--------4-------|
D|-9-9-9-9-9-9------11--------4-------|
A|-7-7-7-7-7-7------9---------2-------|
E|------------------------------------/

------------------------------------------------------------------------
G5    = x-10-12-12-x-x                  F#5    = x-9-11-11-x-x
G5 (II)= 3-5-5-x-x-x                    F#5 (II)= 2-4-4-x-x-x
E5    = x-8-10-10-x-x                   B5     = x-2-4-4-x-x
------------------------------------------------------------------------
Outros vídeos desta música
    1.136 exibições
      • ½ Tom
      • A
      • Bb
      • B
      • C
      • Db
      • D
      • Eb
      • E
      • F
      • F#
      • G
      • Ab
    • Adicionar à lista

    Afinação da cifra

    Afinador online

      0 comentários

      Ver todos os comentários

      Entre para o Cifra Club PRO

      Tenha acesso a benefícios exclusivos no App e no Site

      • Chega de anúncios

      • Badges exclusivas

      • Mais recursos no app do Afinador

      • Atendimento Prioritário

      • Aumente seu limite de lista

      • Ajude a produzir mais conteúdo

      Cifra Club Pro

      Aproveite o Cifra Club com benefícios exclusivos e sem anúncios
      Cifra Club Pro
      Aproveite o Cifra Club com benefícios exclusivos e sem anúncios
      OK