Cifra Club

Aprenda

Room A Thousand Years Wide

Soundgarden

Cifra: Principal (violão e guitarra)
tom: D
Afinção: D A D G B E

E|---------------------------------|
B|---------------------------------|
G|---------------------------------|
D||o--0--3--0--10-10-10--0-0-0-0---|
A||o--0--3--0--8--8--8---0-0-0-0---|
D|---0--3--0--8--8--8---0-0-0-0----|

E|---------------------------------|
B|---------------------------------|
G|---------12-12-12-12-------------|
D||o--0--3--12-12-12-12---0-0-0-0--|
A||o--0--3----------------0-0-0-0--|
D|---0--3----------------0-0-0-0---|

E|-------------------------------------------|
B|----------------------------------=--------|
G|--3--3--3-3-3--4--4-|--3--3--3-3-3--6--6--|
D|--3--3--3-3-3--5--5--|--3--3--3-3-3--7--7--|
A|--1--1--1-1-1--3--3--|--1--1--1-1-1--5--5--|
D|---------------------|---------------------|

E|---------------------|
B|---------------------|
G|--3--3--3-3-3--4--4-|
D|--3--3--3-3-3--5--5--|
A|--1--1--1-1-1--3--3--|
D|---------------------|
Composição de Kim Thayil / Matt Cameron
Colaboração e revisão:
  • Adan Medeiros
1.854 exibições
    • ½ Tom
    • A
    • Bb
    • B
    • C
    • Db
    • D
    • Eb
    • E
    • F
    • F#
    • G
    • Ab
  • Adicionar à lista

    0 comentários

    Ver todos os comentários

    Conseguiu tocar?

    1 Tocaram 1 Ainda não

    Grave um vídeo tocando Room A Thousand Years Wide e nos envie!

    00:00 / 00:00
    Outros vídeos desta música
    Repetir Qualidade Automático
    Outros vídeos desta música
    00:00 / 00:00
    Automático

    Cifra Club Pro

    Aproveite o Cifra Club com benefícios exclusivos e sem anúncios
    Cifra Club Pro
    Aproveite o Cifra Club com benefícios exclusivos e sem anúncios
    OK