Cifra Club

Aprenda

Me Façam Entender

Sugar Kane

Tab de baixo: Principal
Já pensou em usar uma coleção de roupas do Cifra Club? Responda as perguntas abaixo e nos ajude nessa missão! →
Banda: Sugar kane
Música: Me Façam Entender

comeca só com a guitarra, depois de dois tempos entra o restante

intro
|---------------------|
|---------------------|
|---------------------|
|-2-2-2-2--0-2/4-4-4--|

|------------------|
|------------------|
|---------4-4------|
|-6-6-6-6-----4-4--|3x

|---------------------|
|---------------------|
|---------------------|
|-2-2-2-2--0-2/4-4-4--|

"Outra vez eu vou falar..."
|------------------------------------------------------------|
|------------------------------------------------------------|
|-------------4-4-4-4-4-4---------------------------6--6--6--|
|-6-6-6-6-6-6--------------2-2-2-2-2-2--4-4-4-4-4-4----------|

"Eu ligo a Tv e nao vejo nada..."
|------------------|
|------------------|
|---------4-4------|
|-6-6-6-6-----4-4--|3x

"...Não!!!!!!"
|---------------------|
|---------------------|
|---------------------|
|-2-2-2-2--0-2/4-4-4--|

(Refrão)
"Me façam entender..."(nessa parte tem um pequeno slide na corda D)
|-----------------------------------------|
|---------------------------4/6/4---------|
|-----------------------4-4---------------|
|-6-6-6-6-6-6--2-2-2-2-----------4-4-4-4--|

parte sem voz
|------------------|
|------------------|
|---------4-4------|
|-6-6-6-6-----4-4--|3x

|---------------------|
|---------------------|
|---------------------|
|-2-2-2-2--0-2/4-4-4--|

"Nossa Voz..."
|------------------------------------------------------------|
|------------------------------------------------------------|
|-------------4-4-4-4-4-4---------------------------6--6--6--|
|-6-6-6-6-6-6--------------2-2-2-2-2-2--4-4-4-4-4-4----------|

"Não vamos esperar pelo nosso fim..."
|------------------|
|------------------|
|---------4-4------|
|-6-6-6-6-----4-4--|3x

"...Não!!!!!!"
|---------------------|
|---------------------|
|---------------------|
|-2-2-2-2--0-2/4-4-4--|

(Refrão)

Riff sem voz
|------------------------------------------------|
|------------------------------------------------|
|----------------------------------6/8-6-4-6-4---|
|-2-1-2-4-2-1-2-1-2-4-2-1-6~-6-6-6-------------6-|3x

Só baixo e bateria depois entra no refrão
|-----------------------------------------|
|---------------------------4/6/4---------|
|-----------------------4-4---------------|
|-6-6-6-6-6-6--2-2-2-2-----------4-4-4-4--|

"Vai!"
|------------------|
|------------------|
|---------4-4------|
|-6-6-6-6-----4-4--|3x

|-----------------------|
|-----------------------|
|-----------------------|
|-2-2-2-2--0-2/4-4-4--6-|


_______________________________________________________
Composição de Sugar Kane
Colaboração e revisão:
  • Ithallo Tanabe
1.740 exibições

0 comentários

Ver todos os comentários

Conseguiu tocar?

0 Tocaram 0 Ainda não

Grave um vídeo tocando Me Façam Entender e nos envie!

00:00 / 00:00
Outros vídeos desta música
Repetir Qualidade Automático
Outros vídeos desta música
00:00 / 00:00
Automático

Cifra Club Pro

Aproveite o Cifra Club com benefícios exclusivos e sem anúncios
Cifra Club Pro
Aproveite o Cifra Club com benefícios exclusivos e sem anúncios
OK