Cifra Club

Aprenda

Hell Song

Sum 41

Cifra: Versão 4 (violão e guitarra)
Tom: A
Tabbed by: Mike V
Email: *

Tuning: Standard(E-A-D-G-B-e)

Listen to the song for timing...pretty easy to figure out.

Intro

Intro
e|------------------------------------------------------|
B|------------------------------------------------------|
G|------------------------------------------------------| 3x
D|--------1---------1---------1--------2-2-1-1----------|
A|----2-4---2---2-4---2-2-2-4----2-------------4-4------|
E|-4----------0----------------------2------------------|

GUITAR 2
e|------------------------------------------------------|
B|------------------------------------------------------|
G|-------------------44444444---------------------------|
D|-66666666-22222222-44444444-44444444------------------|
A|-66666666-22222222-22222222-44444444------------------|
E|-44444444-00000000----------22222222------------------|

VERSE1
e|------------------------------------------------------|
B|------------------------------------------------------|
G|-------------------44444444---------------------------|
D|-66666666-22222222-44444444-44444444------------------| 2x
A|-66666666-22222222-22222222-44444444------------------|
E|-44444444-00000000----------22222222------------------|
p.m...................................

VERSE2
e|------------------------------------------------------|
B|------------------------------------------------------|
G|-----------------4444444------------------------------| 2x
D|-6666666-2222222-4444444-44444444---------------------|
A|-6666666-2222222-2222222-44444444---------------------|
E|-4444444-0000000---------22222222---------------------|
  ..................................  

CHORUS
e|------------------------------------------------------|
B|------------------------------------------------------|
G|-------------------44444444---------------------------| 2x
D|-66666666-22222222-44444444-44444444------------------|
A|-66666666-22222222-22222222-44444444------------------|
E|-44444444-00000000----------22222222------------------|

GUITAR 2
e|------------------------------------------------------|
B|------------------------------------------------------|
G|------------------------------------------------------| 2x
D|--------1---------1---------1--------2-2-1-1----------|
A|----2-4---2---2-4---2-2-2-4----2-------------4-4------|
E|-4----------0----------------------2------------------|

e|------------------------------------------------------|
B|------------------------------------------------------|
G|-----------------4444444------------------------------|4x
D|-6666666-2222222-4444444-44444444---------------------|
A|-6666666-2222222-2222222-44444444---------------------|
E|-4444444-0000000---------22222222---------------------|
   ................................  

CHORUS
e|------------------------------------------------------|
B|------------------------------------------------------|
G|------------9-999999-4-444444-------------------------|
D|-646-666666-9-999999-4-444444-4-44444-----------------| 4x
A|-646-666666-7-777777-2-222222-4-44444-----------------|
E|-424-444444-------------------2-22222-----------------|

e|------------|
B|------------|
G|------------|
D|-66-66-66-6-|
A|-66-66-66-6-|
E|-44-44-44-4-|

SOLO:
|------------------------------------------------------
|---9-----99999----9-----99999-------------------------
|---11(13)---------11(13)-------11----11-11-11-11/9/8--
|------------------------------------------------------
|------------------------------------------------------
|------------------------------------------------------

--------------------------------------------------------
--------------------------------------------------------
----------------------------------8-9-11-13/11-9/8-8/9--
/11--11-13h14--11-11h13--9-9h11-8-----------------------
--------------------------------------------------------
--------------------------------------------------------

----------------------------------------------------------------
----------------------------------------------------------------
----------------------------------------------------------------
-8h9p8h9p8h9-9h11p9h11p9h11-11h13p11h13p11h13-13h14p13h14p13h14-
----------------------------------------------------------------
----------------------------------------------------------------

---------------------------------------------
-9--------11-------12-------14-----14-12-12--
-11(13)---13(15)---14(16)---16(18)-----------
---------------------------------------------
---------------------------------------------
---------------------------------------------

------------------------------------------------------------- 
--14/16-----16-16-16-16---14/16-----16-16-16-16---16-----19--
--16/18(20)---------------16/18(20)---------------18(20)-----
-------------------------------------------------------------
-------------------------------------------------------------
-------------------------------------------------------------

-------------------------------------- 
--------------16-----19---------------
-18-16-16------18(20)-------18-16-16--
--------------------------------------
--------------------------------------
--------------------------------------

-----------------------------------------------------------------|
-----------------------------------------------------------------|
--16-15-16---15----15--------------------------------------------|
----------------18----18---18-16-18-16---------------------------|
---------------------------------------19-18-19-18---16-14~------|
-----------------------------------------------------------------|

VERSE3
e|----------------------------------------|--------|
B|----------------------------------------|--------|
G|-------------------44444444-------------|--------|
D|-66666666-22222222-44444444-44444444----|---4~---|
A|-66666666-22222222-22222222-44444444----|---4~---|
E|-44444444-00000000----------22222222----|---2~---|
   ...................................

CHORUS
e|------------------------------------------------------|
B|------------------------------------------------------|
G|------------9-999999-4-444444-------------------------| 4x
D|-646-666666-9-999999-4-444444-4-44444-----------------|
A|-646-666666-7-777777-2-222222-4-44444-----------------|
E|-424-444444-------------------2-22222-----------------|

GUITAR 2
e|----------------|
B|----------------|
G|----------------|
D|--4-2-1---------|
A|--------4-2-1---|
E|--------------4-|

GUITAR1
e|------------------------------------------------------|
B|------------------------------------------------------|
G|-------------------44444444---------------------------|
D|-66666666-22222222-44444444-44444444------------------|
A|-66666666-22222222-22222222-44444444------------------|
E|-44444444-00000000----------22222222------------------|

e|----|
B|----|
G|----|
D|-6~-|
A|-6~-|
E|-4~-|

| /  slide up
| \  slide down
| h  hammer-on
| p  pull-off
| ~  vibrato
| +  harmonic
| x  Mute note
===========================================================================
Composição de Deryck Whibley / Greig Nori
1.160 exibições
    • ½ Tom
    • A
    • Bb
    • B
    • C
    • Db
    • D
    • Eb
    • E
    • F
    • F#
    • G
    • Ab
  • Adicionar à lista

    0 comentários

    Mostrar mais comentários

    Conseguiu tocar?

    0 Tocaram 0 Ainda não

    Grave um vídeo tocando Hell Song e mande pra gente!

    00:00 / 00:00
    outros vídeos desta música
    repetir qualidade Automático
    Outros vídeos desta música
    00:00 / 00:00
    Automático

    Cifra Club Pro

    Aproveite o Cifra Club com benefícios exclusivos e sem anúncios
    Cifra Club Pro
    Aproveite o Cifra Club com benefícios exclusivos e sem anúncios
    OK