Cifra Club

Aprenda

Pieces

Sum 41

Cifra: Versão 3 (violão e guitarra)
Tom: F
Introdução - Verso 1

Guitar 1 - sem distorção
e|--1-1-1-1-1---1-1-1-1-1--------------------------|
B|--3-3-3-3-3---3-3-3-3-3--------------------------|
G|--2-2-2-2-2---3-3-3-3-3---2-2-2-2-2---5-5-5-5-5--|
D|--0-0-0-0-0---3-3-3-3-3---3-3-3-3-3---2-2-2-2-2--| 3x
A|--------------------------3-3-3-3-3---3-3-3-3-3--|
E|--------------------------1-1-1-1-1--------------|

___________________________________________________


Refrão 

Guitar 1 - sem distorção
e|-----------------------------------------------|
B|-----------------------------------------------|
G|--3-3-3-3-3-3-3-3-3-3---------------5-5-5-5-5--|
D|--3-3-3-3-3-3-3-3-3-3---3-3-3-3-3---3-3-3-3-3--| 2x
A|--1-1-1-1-1-1-1-1-1-1---3-3-3-3-3---3-3-3-3-3--|
E|------------------------1-1-1-1-1--------------|

e|------|
B|------|
G|--3~--|
D|--3~--|
A|--1~--| 
E|------|

Guitar 2 - sem distorção
e|-----5-------5-------5-------5---------5-------5-----------3-------3---|
B|---6---6---6---6---6---6---6---6-----6---6---6---6-------5---5---5---5-|
G|-7-------7-------7-------7---------5-------5-------5---5-------5-------| 
D|-----------------------------------------------------------------------| 2x 
A|-----------------------------------------------------------------------|
E|-----------------------------------------------------------------------|

___________________________________________________


Ponte/Verso 2

Guitar 1 - com distorçao
e|-------------------------------------------------|
B|-------------------------------------------------|
G|--3-3-3-3-3---3-3-3-3-3---------------5-5-5-5-5--|
D|--3-3-3-3-3---3-3-3-3-3---3-3-3-3-3---3-3-3-3-3--| 3x 
A|--5-5-5-5-5---1-1-1-1-1---3-3-3-3-3---3-3-3-3-3--|
E|--------------------------1-1-1-1-1--------------|

Guitar 2 - sem distorção
e|--5-5-5-5-5--6-6-6-6-6--5-5-5-5-5--3-3-3-3-3--|
B|--6-6-6-6-6--6-6-6-6-6--6-6-6-6-6--5-5-5-5-5--|
G|----------------------------------------------|
D|----------------------------------------------| 3x
A|----------------------------------------------|
E|----------------------------------------------|

___________________________________________________


Refrão 

Guitar 1 - com distorção
e|-----------------------------------------------|
B|-----------------------------------------------|
G|--3-3-3-3-3-3-3-3-3-3---------------5-5-5-5-5--|
D|--3-3-3-3-3-3-3-3-3-3---3-3-3-3-3---3-3-3-3-3--| 2x
A|--1-1-1-1-1-1-1-1-1-1---3-3-3-3-3---3-3-3-3-3--|
E|------------------------1-1-1-1-1--------------|

e|------|
B|------|
G|--3~--|
D|--3~--|
A|--1~--| 
E|------|

Guitar 2 - sem distorção
e|--6-6-6-6-6-6-6-6-6-6---5-5-5-5-5---8-8-8-8-8--|
B|--6-6-6-6-6-6-6-6-6-6---6-6-6-6-6---6-6-6-6-6--|
G|-----------------------------------------------|
D|-----------------------------------------------| 2x
A|-----------------------------------------------|
E|-----------------------------------------------|

Guitar 3 - sem distorção, bem fraquinha
e|-----5-------5-------5-------5---------5-------5-----------3-------3---|
B|---6---6---6---6---6---6---6---6-----6---6---6---6-------5---5---5---5-|
G|-7-------7-------7-------7---------5-------5-------5---5-------5-------| 
D|-----------------------------------------------------------------------| 2x 
A|-----------------------------------------------------------------------|
E|-----------------------------------------------------------------------|

___________________________________________________


Solo

Guitar 1 - com distorção
e|-------------------------------------------------|
B|-------------------------------------------------|
G|--3-3-3-3-3---3-3-3-3-3---3-3-3-3-3--------------|
D|--3-3-3-3-3---3-3-3-3-3---3-3-3-3-3---3-3-3-3-3--| 2x 
A|--5-5-5-5-5---3-3-3-3-3---1-1-1-1-1---3-3-3-3-3--|
E|--------------------------------------1-1-1-1-1--|

e|-------------|
B|-------------|
G|--5-5-5-5-5--|
D|--5-5-5-5-5--| 1x
A|--3-3-3-3-3--| 
E|-------------|

Guitar 2 - sem distorção
e|--5-5-5-6-5-5-5-6-5-5-5-5-8-8-8-8--|
B|--6-6-6-6-6-6-6-6-6-6-6-6-6-6-6-6--|
G|-----------------------------------|
D|-----------------------------------| 2x
A|-----------------------------------|
E|-----------------------------------|

e|--5---8---------8--------5----------5----|
B|----6---6---8-5---5---6-----6-----6---6--|
G|------------------------7-------5--------|
D|-----------------------------------------| 2x 
A|-----------------------------------------|
E|-----------------------------------------|

e|--------------------------------------|
B|--5-5-5-5-5-5-5-5-5-5/10-10-10-10-10--|
G|--------------------------------------|
D|--------------------------------------|
A|--------------------------------------|
E|--------------------------------------|

___________________________________________________

Verso 3

Guitar 1 - com distorçao
e|-------------------------------------------------|
B|-------------------------------------------------|
G|--3-3-3-3-3---3-3-3-3-3---------------5-5-5-5-5--|
D|--3-3-3-3-3---3-3-3-3-3---3-3-3-3-3---3-3-3-3-3--| 2x 
A|--5-5-5-5-5---1-1-1-1-1---3-3-3-3-3---3-3-3-3-3--|
E|--------------------------1-1-1-1-1--------------|

Guitar 2 - sem distorção
e|--5-5-5-5-5--6-6-6-6-6--5-5-5-5-5--3-3-3-3-3--|
B|--6-6-6-6-6--6-6-6-6-6--6-6-6-6-6--5-5-5-5-5--|
G|----------------------------------------------|
D|----------------------------------------------| 2x
A|----------------------------------------------|
E|----------------------------------------------|

___________________________________________________

Refrão

Guitar 1 - com distorção
e|-----------------------------------------------|
B|-----------------------------------------------|
G|--3-3-3-3-3-3-3-3-3-3---------------5-5-5-5-5--|
D|--3-3-3-3-3-3-3-3-3-3---3-3-3-3-3---3-3-3-3-3--| 2x
A|--1-1-1-1-1-1-1-1-1-1---3-3-3-3-3---3-3-3-3-3--|
E|------------------------1-1-1-1-1--------------|

Guitar 2 - sem distorção
e|--6-6-6-6-6-6-6-6-6-6---5-5-5-5-5---8-8-8-8-8--|
B|--6-6-6-6-6-6-6-6-6-6---6-6-6-6-6---6-6-6-6-6--|
G|-----------------------------------------------|
D|-----------------------------------------------| 2x
A|-----------------------------------------------|
E|-----------------------------------------------|

Guitar 3 - sem distorção, bem fraquinha
e|-----5-------5-------5-------5---------5-------5-----------3-------3---|
B|---6---6---6---6---6---6---6---6-----6---6---6---6-------5---5---5---5-|
G|-7-------7-------7-------7---------5-------5-------5---5-------5-------| 
D|-----------------------------------------------------------------------| 2x 
A|-----------------------------------------------------------------------|
E|-----------------------------------------------------------------------|

___________________________________________________

Outro
e|------|
B|------|
G|------|
D|--3~--|
A|--3~--| 
E|--1~--|

=]------------
Composição de Deryck Whibley / Greig Nori
36.636 exibições
    • ½ Tom
    • A
    • Bb
    • B
    • C
    • Db
    • D
    • Eb
    • E
    • F
    • F#
    • G
    • Ab
  • Adicionar à lista

    0 comentários

    Mostrar mais comentários

    Conseguiu tocar?

    0 Tocaram 0 Ainda não

    Grave um vídeo tocando Pieces e mande pra gente!

    00:00 / 00:00
    outros vídeos desta música
    repetir qualidade Automático
    Outros vídeos desta música
    00:00 / 00:00
    Automático

    Cifra Club Pro

    Aproveite o Cifra Club com benefícios exclusivos e sem anúncios
    7 dias grátis
    Cifra Club Pro
    Aproveite o Cifra Club com benefícios exclusivos e sem anúncios
    7 dias grátis
    OK