Cifra Club

Aprenda

Advice For the Young at Heart

Tears For Fears

Cifra: Principal (violão e guitarra)
tom: F
F7M                         Em7
  Advice for the young at heart 
                      F7M
  Soon we will be older 
                             Em7
  When we gonna make it work ? 

( F7M  Em7 ) 

F7M                                 Em7
  Too many people living in a secret world 
                       F7M
  While they play mothers and fathers 
                         Em7
  We play little boys and girls 
F7M                      C7M
  When we gonna make it work ? 
F7M
  I Could be happy 
                     Em7
  I could be quite naïve 
            F7M
  It's only me and my shadows 
                     Em7
  Happy in our make believe 
C7M
  Soon
Gm7            Bb
  And with the hounds at bay 
   C                  C7M
  I'll call your bluff hey hey heeey
Gm7           Bb
  Cos it would be okay 
    C                C7M
  To walk on tiptoes everyday 
                 Gm7                  Bb
  And when I think of you and all the love that's due 
               C                    C7M
  I'll make a promise, I'll make a stand 
                Gm7                           Bb
  'Cos to these big brown eyes, this comes as no surprise 
                C                       D
  We've got the whole wide world in our hands 
 
F7M                        Em7
  Advice for the young at heart 
                    F7M
  Soon we will be older 
                          Em7
  When we gonna make it work ? 
F7M                             Em7
  Love is promise Love is a souvenir 
                 F7M                          Em7
  Once given Never forgotten, never let it disappear 
                         F7M
  This could be our last chance 
                            C7M
  When we gonna make it work ? 
                        Gm7     Bb      C
  Working hour is over 
Gm7         Bb
  And how it makes me weep 
        C
  Cos someone sent my soul to sleep 
                 Bb
  And when I think of you and all the love that's due 
               C                      
  I'll make a promise, I'll make a stand 
                   Bb
  Cos to these big brown eyes, this comes as no surprise 
                    C                   D
  We've got the whole wide world in our hands 
 
[Solo]  

   Bb

E|-8-\1---------------------------------------------------|
B|-10\3----3\6--8b-| 8~ -6--5-----------------------------|
G|----------------------------5~| --------------------5---|
D|-------------------------------7--5--7-----------3\5----|
A|----------------------------------------5--3--5---------|
E|--------------------------------------------------------|

   Bb                                            C

E|----------------8-----------------------------------------5--3-|
B|-3\6--8b--3\6--8b--8--6--8--6\5---------------------------5--3-|
G|---------------------------------7-5h-----5---------------5--3-|
D|---------------------------------------7-----7-7-5h---5-7-5--3-|
A|----------------------------------------------------7----------|
E|----------------------------------------------------------5--3-|

    Bb      Am7    Am A4 Am   Am A4 Am   Am A4 Am    Am A4 Am                       Bb                     
                                               We've got the whole wide world in our hands

E|--3-3-----5-5-------------------------------------------5--3---|
B|--3-3-----5-5-------------------------------------------5--3---|
G|--3-3-----5-5----5-7-5------5-7-5------5-7-5------5-7-5-5--3---|
D|--3-3-----5-5----5-7-5------5-7-5------5-7-5------5-7-5-5--3---|
A|-----------------------7h---------7h---------7h----------------|
E|--3-3-----5-5-------------------------------------------5--3---|

    Bb      Am7    Am A4 Am   Am A4 Am   Am A4 Am A4 Am A4    F7M
               We've got the whole wide world in our hands

E|--3-3-----5-5--------------------------------------------------|
B|--3-3-----5-5------------------------------------------1-------|
G|--3-3-----5-5----5-7-5------5-7-5------5-7-5-7-5-7-----2-------|
D|--3-3-----5-5----5-7-5------5-7-5------5-7-5-7-5-7-----2-------|
A|-----------------------7h---------7h---------------------------|
E|--3-3-----5-5------------------------------------------1-------|
    
F7M                           Em7
  Advice for the young at heart 
                      F7M
  Soon we will be older  
                            Em7
  When we gonna make it work ?
F7M                           Em7
  Advice for the young at heart 
                      F7M
  Soon we will be older  
                            Em7
  When we gonna make it work ?
                        F7M
  Working hour is over 
                                    Em7
  We can do anyhting that we want 
                                    F7M
  Anything that we feel like doing 
 
  Advice
Composição de Nicky Holland / Roland Orzabal
Colaboração e revisão:
46.463 exibições
    • ½ Tom
    • A
    • Bb
    • B
    • C
    • Db
    • D
    • Eb
    • E
    • F
    • F#
    • G
    • Ab
  • Adicionar à lista

    0 comentários

    Ver todos os comentários

    Conseguiu tocar?

    8 Tocaram 2 Ainda não

    Grave um vídeo tocando Advice For the Young at Heart e nos envie!

    00:00 / 00:00
    Outros vídeos desta música
    Repetir Qualidade Automático
    Outros vídeos desta música
    00:00 / 00:00
    Automático

    Cifra Club Pro

    Aproveite o Cifra Club com benefícios exclusivos e sem anúncios
    Cifra Club Pro
    Aproveite o Cifra Club com benefícios exclusivos e sem anúncios
    OK