Cifra Club

Friendship

Tenacious D

Cifra: Versão 3 (violão e guitarra)
tom: B
signature is 4/4 and the tempo is 130 all the way through apart from where
shown.

Intro                                                    Verse One

E||--------------------------|--------------------------|--------------------------|
B||--------------------------|--------------------------|--------------------------|
G||--------------------------|--------------------------|--------------------------|
D||--9--9--9--9--9--9--9--9--|--9--9--9--9--9--9--9--9--|--9--9--9--9--9--9--9--9--|
A||--9--9--9--9--9--9--9--9--|--9--9--9--9--9--9--9--9--|--9--9--9--9--9--9--9--9--|
E||--7--7--7--7--7--7--7--7--|--7--7--7--7--7--7--7--7--|--7--7--7--7--7--7--7--7--|


Do you know what I'm saying to you friendship is rare
--------------------------|--------------------------|--------------------------|
--------------------------|--------------------------|--------------------------|
--------------------------|--------------------------|--------------------------|
--9--9--9--9--9--9--9--9--|--6--6--6--6--6--6--6--6--|--6--6--6--6--6--6--6--6--|
--9--9--9--9--9--9--9--9--|--6--6--6--6--6--6--6--6--|--6--6--6--6--6--6--6--6--|
--7--7--7--7--7--7--7--7--|--4--4--4--4--4--4--4--4--|--4--4--4--4--4--4--4--4--|

My derriere when you find out much later that they don't even care
--------------------------|--------------------------|--------------------------|
--------------------------|--------------------------|--------------------------|
--------------------------|--------------------------|--------------------------|
--9--9--9--9--9--9--9--9--|--9--9--9--9--9--9--9--9--|--6--6--6--6--6--6--6--6--|
--9--9--9--9--9--9--9--9--|--9--9--9--9--9--9--9--9--|--6--6--6--6--6--6--6--6--|
--7--7--7--7--7--7--7--7--|--7--7--7--7--7--7--7--7--|--4--4--4--4--4--4--4--4--|

                           Chorus One

                           It's rare to me
--------------------------|--------------------------|--------------------------|
--------------------------|--------------------------|--------------------------|
--------------------------|--------------------------|--9--9--9--9--9--9--9--9--|
--6--6--6--6--6--6--6--6--|--7--7--7--7--7--7--7--7--|--9--9--9--9--9--9--9--9--|
--6--6--6--6--6--6--6--6--|--7--7--7--7--7--7--7--7--|--7--7--7--7--7--7--7--7--|
--4--4--4--4--4--4--4--4--|--5--5--5--5--5--5--5--5--|--------------------------|

Can't you see?                                        It's rare to me
--------------------------|--------------------------|--------------------------|
--------------------------|--------------------------|--------------------------|
--------------------------|--------------------------|--------------------------|
--9--9--9--9--9--9--9--9--|--9--9--9--9--9--9--9--9--|--7--7--7--7--7--7--7--7--|
--9--9--9--9--9--9--9--9--|--9--9--9--9--9--9--9--9--|--7--7--7--7--7--7--7--7--|
--7--7--7--7--7--7--7--7--|--7--7--7--7--7--7--7--7--|--5--5--5--5--5--5--5--5--|

                           Can't you see?
--------------------------|--------------------------|--------------------------|
--------------------------|--------------------------|--------------------------|
--9--9--9--9--9--9--9--9--|--------------------------|--------------------------|
--9--9--9--9--9--9--9--9--|--9--9--9--9--9--9--9--9--|--9--9--9--9--9--9--9--9--|
--7--7--7--7--7--7--7--7--|--9--9--9--9--9--9--9--9--|--9--9--9--9--9--9--9--9--|
--------------------------|--7--7--7--7--7--7--7--7--|--7--7--7--7--7--7--7--7--|

Verse Two

Oh shit there's a bear could you hand me that shotgun buddy also that chair
--------------------------|--------------------------|--------------------------|
--------------------------|--------------------------|--------------------------|
--------------------------|--------------------------|--------------------------|
--9--9--9--9--9--9--9--9--|--9--9--9--9--9--9--9--9--|--6--6--6--6--6--6--6--6--|
--9--9--9--9--9--9--9--9--|--9--9--9--9--9--9--9--9--|--6--6--6--6--6--6--6--6--|
--7--7--7--7--7--7--7--7--|--7--7--7--7--7--7--7--7--|--4--4--4--4--4--4--4--4--|

                           We're fighting a bear now your live's in great danger
--------------------------|--------------------------|--------------------------|
--------------------------|--------------------------|--------------------------|
--------------------------|--------------------------|--------------------------|
--6--6--6--6--6--6--6--6--|--9--9--9--9--9--9--9--9--|--9--9--9--9--9--9--9--9--|
--6--6--6--6--6--6--6--6--|--9--9--9--9--9--9--9--9--|--9--9--9--9--9--9--9--9--|
--4--4--4--4--4--4--4--4--|--7--7--7--7--7--7--7--7--|--7--7--7--7--7--7--7--7--|

                                                      Chorus Two

and you don't even care                               It's rare to me
--------------------------|--------------------------|--------------------------|
--------------------------|--------------------------|--------------------------|
--------------------------|--------------------------|--------------------------|
--6--6--6--6--6--6--6--6--|--6--6--6--6--6--6--6--6--|--7--7--7--7--7--7--7--7--|
--6--6--6--6--6--6--6--6--|--6--6--6--6--6--6--6--6--|--7--7--7--7--7--7--7--7--|
--4--4--4--4--4--4--4--4--|--4--4--4--4--4--4--4--4--|--5--5--5--5--5--5--5--5--|

                           Can't you see?
--------------------------|--------------------------|--------------------------|
--------------------------|--------------------------|--------------------------|
--9--9--9--9--9--9--9--9--|--------------------------|--------------------------|
--9--9--9--9--9--9--9--9--|--9--9--9--9--9--9--9--9--|--9--9--9--9--9--9--9--9--|
--7--7--7--7--7--7--7--7--|--9--9--9--9--9--9--9--9--|--9--9--9--9--9--9--9--9--|
--------------------------|--7--7--7--7--7--7--7--7--|--7--7--7--7--7--7--7--7--|

It's rare to me                                       Can't you see?
--------------------------|--------------------------|--------------------------|
--------------------------|--------------------------|--------------------------|
--------------------------|--9--9--9--9--9--9--9--9--|--------------------------|
--7--7--7--7--7--7--7--7--|--9--9--9--9--9--9--9--9--|--9--9--9--9--9--9--9--9--|
--7--7--7--7--7--7--7--7--|--7--7--7--7--7--7--7--7--|--9--9--9--9--9--9--9--9--|
--5--5--5--5--5--5--5--5--|--------------------------|--7--7--7--7--7--7--7--7--|


                           Bridge: Tempo = 120

--------------------------|-------------------|-------------------|-------------------|
--------------------------|-------------------|-------------------|-------------------|
--------------------------|-------------------|--9----------------|-------------------|
--9--9--9--9--9--9--9--9--|--7----------------|--9----------------|--7----------------|
--9--9--9--9--9--9--9--9--|--7----------------|--7----------------|--7----------------|
--7--7--7--7--7--7--7--7--|--5----------------|-------------------|--5----------------|

                    Outro: Tempo = 130

-------------------|--------------------------|--------------------------|
-------------------|--------------------------|--------------------------|
--9----------------|--------------------------|--7--7--7--7--7--7--7--7--|
--9----------------|--7--7--7--7--7--7--7--7--|--7--7--7--7--7--7--7--7--|
--7----------------|--7--7--7--7--7--7--7--7--|--5--5--5--5--5--5--5--5--|
-------------------|--5--5--5--5--5--5--5--5--|--------------------------|

                                                      Friends will be friends
--------------------------|--------------------------|-------------------------|
--------------------------|--------------------------|-------------------------|
--------------------------|--------------------------|-------------------------|
--2--2--2--2--2--2--2--2--|--2--2--2--2--2--2--2--2--|--9----9----9--9--9--9-9-|
--2--2--2--2--2--2--2--2--|--2--2--2--2--2--2--2--2--|--9----9----9--9--9--9-9-|
--0--0--0--0--0--0--0--0--|--0--0--0--0--0--0--0--0--|--7----7----7--7--7--7-7-|


They're running naked in the sand                     will someday surely form a band
                            Friends holding hands
---------------------------|-------------------------|---------------------------|
---------------------------|-------------------------|---------------------------|
---------------------------|-------------------------|---------------------------|
--8/-9/-8/-9/-8--x-x-x--x--|--9----9----9--9--9--9-9-|--8/-9/-8/-9/-8--x-x-x--x--|
--8/-9/-8/-9/-8--x-x-x--x--|--9----9----9--9--9--9-9-|--8/-9/-8/-9/-8--x-x-x--x--|
--6/-7/-6/-7/-6--x-x-x--x--|--7----7----7--7--7--7-7-|--6/-7/-6/-7/-6--x-x-x--x--|

Friends will be friends. They say that friends are friends to the bitter end
-------------------------|--------------------------------------------|
-------------------------|--------------------------------------------|
-------------------------|--------------------------------------------|
--9----9----9--9--9--9-9-|--11--11--11--11-11-11-11-11-11-11-11-11-11-|
--9----9----9--9--9--9-9-|--11--11--11--11-11-11-11-11-11-11-11-11-11-|
--7----7----7--7--7--7-7-|--9---9---9---9--9--9--9--9--9--9--9--9--9--|

[2x]
--------------------------------------------|------------------------------------------|
--------------------------------------------|------------------------------------------|
--------------------------------------------|------------------------------------------|
--13-13-13-13-13-13-13-13-13-13-13-13-13----|--13-13-13-13-13-13-13-13-13-13-13-13-13--|
--13-13-13-13-13-13-13-13-13-13-13-13-13----|--13-13-13-13-13-13-13-13-13-13-13-13-13--|
--11-11-11-11-11-11-11-11-11-11-11-11-11----|--11-11-11-11-11-11-11-11-11-11-11-11-11--|


                          They're running naked in the sand
Friends will be friends                               Friends holding hands
-------------------------|---------------------------|-------------------------|
-------------------------|---------------------------|-------------------------|
-------------------------|---------------------------|-------------------------|
--9----9----9--9--9--9-9-|--8/-9/-8/-9/-8--x-x-x--x--|--9----9----9--9--9--9-9-|
--9----9----9--9--9--9-9-|--8/-9/-8/-9/-8--x-x-x--x--|--9----9----9--9--9--9-9-|
--7----7----7--7--7--7-7-|--6/-7/-6/-7/-6--x-x-x--x--|--7----7----7--7--7--7-7-|


Will surely someday form a band
                            Friends will be friends   They say that friends are friends 
the bitter end
---------------------------|-------------------------|--------------------------------------------|
---------------------------|-------------------------|--------------------------------------------|
---------------------------|-------------------------|--------------------------------------------|
--8/-9/-8/-9/-8--x-x-x--x--|--9----9----9--9--9--9-9-|--11--11--11--11-11-11-11-11-11-11-11-11-11-|
--8/-9/-8/-9/-8--x-x-x--x--|--9----9----9--9--9--9-9-|--11--11--11--11-11-11-11-11-11-11-11-11-11-|
--6/-7/-6/-7/-6--x-x-x--x--|--7----7----7--7--7--7-7-|--9---9---9---9--9--9--9--9--9--9--9--9--9--|

As long as there's a record deal we'll always be friends
--------------------------------------------|------------------|--|
--------------------------------------------|------------------|--|
--------------------------------------------|------------------|--|
--13-13-13-13-13-13-13-13-13-13-13-13-13----|------------------|--|
--13-13-13-13-13-13-13-13-13-13-13-13-13----|------------------|--|
--11-11-11-11-11-11-11-11-11-11-11-11-11----|------------------|--|
Composição de Tenacious D
218 exibições
    • ½ Tom
    • A
    • Bb
    • B
    • C
    • Db
    • D
    • Eb
    • E
    • F
    • F#
    • G
    • Ab
  • Adicionar à lista

    0 comentários

    Ver todos os comentários
    00:00 / 00:00
    Outros vídeos desta música
    Repetir Qualidade Automático
    Outros vídeos desta música
    00:00 / 00:00
    Automático

    Cifra Club Pro

    Aproveite o Cifra Club com benefícios exclusivos e sem anúncios
    Cifra Club Pro
    Aproveite o Cifra Club com benefícios exclusivos e sem anúncios
    OK