Enviar cifraEntrar

Californication

Red Hot Chili Peppers

Cifra: Principal
exibições 4.587.515
Tom: C
Introdução: Am  F  Am  F
            Am  F  Am  F


   Am         F
E|------------------------------------------|
B|-----0-1----------------------------------|
G|----------------0-2-----------------------|
D|---2--------------------------------------|
A|-0------------3---------------------------|
E|------------1-----------------------------|


Primeira Parte:


   Am         F
E|------------------------------------------|
B|-----0-1----------------------------------|
G|----------------0-2-----------------------|  (2x)
D|---2--------------------------------------|
A|-0------------3---------------------------|
E|------------1-----------------------------|


   C       G       F       Dm
E|-----0-----------------------1------------|
B|-----1-------0-------1-------3------------|
G|---0---0-----0-------2-----2--------------|
D|-------2---0---0---3---3-0----------------|
A|-3----------------------------------------|
E|---------3-------1------------------------|


   Am         F
E|------------------------------------------|
B|-----0-1----------------------------------|
G|----------------0-2-----------------------|  (2x)
D|---2--------------------------------------|
A|-0------------3---------------------------|
E|------------1-----------------------------|


  Am
Psychic spies from China
         F
Try to steal your mind's elation
 Am
Little girls from Sweden
          F
Dream of silver screen quotations
    C                  G
And if you want these kind of dreams
      F        Dm    Am  F  Am  F
It's Californication


   Am         F
E|------------------------------------------|
B|-----0-1----------------------------------|
G|----------------0-2-----------------------|  (2x)
D|---2--------------------------------------|
A|-0------------3---------------------------|
E|------------1-----------------------------|


   C       G       F       Dm
E|-----0-----------------------1------------|
B|-----1-------0-------1-------3------------|
G|---0---0-----0-------2-----2--------------|
D|-------2---0---0---3---3-0----------------|
A|-3----------------------------------------|
E|---------3-------1------------------------|


         Am
It's the    edge of the world
            F
And all of western civilization
     Am
The sun may rise in the East
             F
At least it settles in the final location
     C                G
It's understood that Hollywood
       F        Dm
Sells Californication


Primeira Ponte:

Am  F7M  Am  F7M

 Am
Pay your surgeon very well
     F7M
To break the spell of aging
   Am
Celebrity Skin is this your chin
   F7M
Or is that war your waging
Am                F7M
   First born unicorn
Am                 F7M
   Hard core soft porn


Primeiro Refrão:

  C           G    Dm    Am
Dream of Californication
  C           G    Dm
Dream of Californication


Segunda Parte:

Am  F  Am  F

 Am
Marry me girl be my fairy to the world
       F
Be my very own constellation
   Am
A teenage bride with a baby inside
         F
Getting high on information
     C                    G
And buy me a star on the Boulevard
      F        Dm    Am  F  Am  F
It's Californication

  Am
Space may be the final frontier
          F
But it's made in a Hollywood basement
 Am
Cobain can you hear the spheres
         F
Singing songs off station to station
    C               G
And Alderaan's not far away
      F        Dm
It's Californication


Segunda Ponte:

Am  F7M  Am  F7M

 Am
Born and raised by those who praise
     F7M
Control of population
Am
Everybody's been there and
   F7M
I don't mean on vacation
Am                F7M
   First born unicorn
Am                 F7M
   Hard core soft porn


Segundo Refrão:

  C           G    Dm    Am
Dream of Californication
  C           G    Dm
Dream of Californication
  C           G    Dm    Am
Dream of Californication
  C           G    Dm
Dream of Californication


Solo: F#m  D7M  F#m  D7M
      Bm  D5  A5  E5
      F#m  D7M  F#m  D7M
      Bm  D5  A5  E5

(Parte 1)


E|-------9----------------------9----------------------|
B|-10--------7b9r7~-------10---------7b9r7----7--7-7-7-|
G|-----------------------------------------------------|
D|-----------------------------------------------------|
A|-----------------------------------------------------|
E|-----------------------------------------------------|


(Parte 2)


E|-----------------------------------------------------|
B|-7p5---------------5-----7b9r7--5--------------------|
G|-----6--6~---4--6-----------------6~-----------------|
D|-----------------------------------------------------|
A|-----------------------------------------------------|
E|-----------------------------------------------------|


(Parte 3)


E|-------9--12--14~-------------9--12--14b16r--14~-----|
B|-10---------------------10---------------------------|
G|-----------------------------------------------------|
D|-----------------------------------------------------|
A|-----------------------------------------------------|
E|-----------------------------------------------------|


(Parte 4)


E|-17---16---14--------14------------------------------|
B|----------------17--------17-14---17---14------------|
G|-----------------------------------------------------|
D|-----------------------------------------------------|
A|-----------------------------------------------------|
E|-----------------------------------------------------|


(Parte 5)


E|-----------------------------------------------------|
B|-14-------14-------14-------17---14------------------|
G|-16b18~---16b18~---16b18-----------------------------|
D|-----------------------------------------------------|
A|-----------------------------------------------------|
E|-----------------------------------------------------|


(Parte 6)


E|-14b16r14--------------------------------------------|
B|-----------17-14-17---14-------------17---15---14----|
G|---------------------------16---14-----------------14|
D|-----------------------------------------------------|
A|-----------------------------------------------------|
E|-----------------------------------------------------|



Terceira Parte:

Am  F  Am  F

     Am
Destruction leads to a very rough road
       F
But it also breeds creation
    Am
And earthquakes are to a girl's guitar
         F
They're just another good vibration
     C                    G
And tidal waves couldn't save the world
      F        Dm
From Californication


Terceira Ponte:

Am  F7M  Am  F7M

 Am
Pay your surgeon very well
     F7M
To break the spell of aging
 Am
Sicker than the rest
             
There is no test
      F7M
But this is what you're craving
Am                F7M
   First born unicorn
Am                 F7M
   Hard core soft porn


Terceiro Refrão:

  C           G    Dm    Am
Dream of Californication
  C           G    Dm
Dream of Californication
  C           G    Dm    Am
Dream of Californication
  C           G    Dm
Dream of Californication
  • 1
  • 2
  • 3
  • 4
  • 5
  • 6
  • 7
  • 8
  • 9
  • 10
  • 11
  • 12

    0 comentários

      mostrar mais comentários
      00:00 / 00:00
      outros vídeos desta música
      repetirqualidadeautomática
      • automática
      Outro vídeos desta música
        Capítulos
        • Tocando a música
        • Dicas Iniciais / Equipamentos
        • Acordes da Introdução
        • Tocando a Introdução
        • Riff Principal
        • Acordes da Primeira Parte
        • Tocando a Primeira Parte
        • Primeira Parte - Primeira Estrofe
        • Acordes da Ponte
        • Tocando a Ponte
        • Ritmo da Ponte
        • Acordes do Refrão
        • Tocando o Refrão
        • Ritmo do Refrão
        • Dicas 2
        • Acordes Base do Solo
        • Tocando o Solo
        • Solo - Parte 1 de 6
        • Solo - Parte 2 de 6
        • Solo - Parte 3 de 6
        • Solo - Parte 4 de 6
        • Solo - Parte 5 de 6
        • Solo - Parte 6 de 6
        • Encerramento
        • Ficha Técnica
        00:00 / 00:00
        automática
        • automática
        fecharplay/pause subir/descer velocidade
          acordes
          fechar
          OK
          Feedback