Notificações Amigos pendentes

      Red Hot Chili Peppers

      Under The Bridge

      1.508.855 exibições
      Tom: A
      Introdução:
      
      
        D                        F#
      E|-----------------------------------------
      B|----------3------------------------------
      G|-----2------2---------------------3------
      D|--4----4----------------------4------4---
      A|5-------------4--2----------4---4--------
      E|--------------------5-4--2---------------
      
      
                             D
      E|-----------------------------------------
      B|------------------------3----3/5--5------
      G|------------------2-------2--2/4--4------
      D|4--2---------4-------4-------------------
      A|-----5--2--5---5-------------------------
      E|-----------------------------------------
      
      
        F#                     D
      E|-----------------------------------------
      B|---------------------------------3-------
      G|--------3--------------------2-----2-----
      D|----4-----4--4--2--------4-----4---------
      A|--4---4-----------5--2-5---5-------------
      E|2----------------------------------------
      
      
                F#
      E|-----------------------------------------
      B|-----------------------------------------
      G|-----------------3-----------------------
      D|-------------4-----4---------------------
      A|4--2-------4---4-------------------------
      E|-----5-4-2-------------------------------
      
      
                   D
      E|-----------------------------------------
      B|------------------------3----3/5--5------
      G|------------------2-------2--2/4--4------
      D|4--2---------4-------4-------------------
      A|-----5--2--5---5-------------------------
      E|-----------------------------------------
      
      
        F#
      E|-----------------------------------------
      B|-----------------------------------------
      G|--------3--------------------------------
      D|----4-----4------------------------------
      A|--4---4------4---------------------------
      E|2----------------------------------------
      
      
      E               B
        Sometimes I feel
             C#m          G#m A
      Like I don't have a partner
       E             B
        Sometimes I feel
           C#m       A           E      B
      Like my only friend is the city I live in
            C#m    G#m A
        The city of angels
       E          B
      Lonely as I am
       C#m          A  E7M
      Together we cry
      E                   B
        I drive on her streets
              C#m        G#m   A
      'Cause shes' my companion
       E                    B
        I walk through her hills
                  C#m      A
      'Cause she knows who I am
             E            B
        She sees my good deeds
              C#m       G#m  A
      And she kisses me windy
        E         B
         I never worry
           C#m       A    E7M
      Now that is a lie
      
      Refrão:
        F#m         E           B
      I don't ever want to feel
              F#m
      Like I did that day
                           E      B
      Take me to the place I love
            F#m
      Take me all the way
      
      passagem:
      
      
        E      B
      E|-----------------------------------------
      B|9--10--7--9p7---7--9p7--7--7-------------
      G|9--9---8--8-----8--8----8--8-------------
      D|9--9---9--9-----9--9----9--9-------------
      A|7--7--------------------------------------
      E|-----------------------------------------
      
        ↓  ↑   ↓  ↑     ↑  ↓    ↓  ↑
      
      
        C#m      G#m A                  E
      E|-------------------5h7p5-----------------
      B|------9-----4--5---------5--------9----9-
      G|------9-----4--6------------------9----9-
      D|9/11----11--6--7------------------9----9-
      A|----------------------------9/11----11---
      E|-----------------------------------------
      
      
        B              C#m           A
      E|-----------------------------------------
      B|7----------------------------5-----------
      G|8----8h9p8---------9--11b13--6-----------
      D|9--9-------9--9/11-----------7-----------
      A|-----------------------------------------
      E|-----------------------------------------
      
      
           E         B
      It's hard to believe
                   C#m   G#m     A
      That there's nobody out there
            E          B
       It's hard to believe
          C#m      A
      That I'm all alone
          E           B
      At least I have her love
           C#m      G#m   A
      The city she loves me
       E        B
      Lonely as I am
         C#m        A    E7M
      Together we cry
      
      (Refrão)
      
      3ª parte
      A9  Am9  G6  F7M(11+)
      F7M  E7 G7M
      
      A9                Am9
      Under the bridge downtown
      G6            F7M(11+)
       Is where I drew some blood
      A9                Am9
      Under the bridge downtown
      G6        F7M(11+)
       I could not get enough
      A9                Am9
      Under the bridge downtown
      G6        F7M(11+)
       Forget about my love
      A9                 Am9
      Under the bridge downtown
      G6       F7M(11+)      A9  Am9  G6  F7M(11+)
       I gave my life away.
      
      1ª parte:
      
      
        E     B            C#m       G#m A
      E|-----------------------------------5h7p5-
      B|9--9--7-----------------9-----4--5------5
      G|9--9--8---8h9p8---------9-----4--6-------
      D|9--9--9-9-------9-9/11----11--6--7-------
      A|7--7-------------------------------------
      E|-----------------------------------------
      
      
        E           B           C#m        A
      E|-----------------------------------------
      B|------9-----7----------------9-----5-----
      G|------9-----8---8h9p8--------9-----6-----
      D|------9-----9-9-------9-9/11---11--7-----
      A|9/11----11-------------------------------
      E|-----------------------------------------
      
      
                  E     B            C#m
      E|-----------------------------------------
      B|5--5--5---9--9--7----7h9p7--------9------
      G|6--6--6---9--9--8----------8------9------
      D|7--7--7---9--9--9-9----------9/11----11--
      A|----------7--7---------------------------
      E|-----------------------------------------
      
      
        G#m A
      E|-----5h7p5-------------------------------
      B|4--5-------5-----------------------------
      G|4--6-------------------------------------
      D|6--7-------------------------------------
      A|-----------------------------------------
      E|-----------------------------------------
      
      
         E          B           C#m        A
      E|-----------------------------------------
      B|------9-----7----------------9-----5-----
      G|------9-----8---8h9p8--------9-----6-----
      D|------9-----9-9-------9-9/11---11--7-----
      A|9/11----11-------------------------------
      E|-----------------------------------------
      
      
      2ª parte:
      
      
        E           B             C#m
      E|-----------------------------------------
      B|9--9--9--9--7------------------9-----4---
      G|9--9--9--9--8----8h9p8---------9-----4---
      D|9--9--9--9--9--9-------9--9/11---11--6---
      A|7--7--7--7-------------------------------
      E|-----------------------------------------
      
      ↓  ↑  ↓  ↑  ↓
      
      
        A            E         B           C#m
      E|---5h7p5------------------7h9-7----------
      B|5--------5-------9-----7--7---7----------
      G|6----------------9-----8-----------------
      D|7----------------9-----9---------9-9/11--
      A|------------9/11---11--------------------
      E|-----------------------------------------
      
      
              A
      E|---------7p5---7p5-----------------------
      B|9-----5------5-----5---------------------
      G|9-----6----------------------------------
      D|--11--7----------------------------------
      A|-----------------------------------------
      E|-----------------------------------------
      
      
        E           B           C#m       G#m A
      E|-----------------------------------------
      B|------9-----7----------------9-----4--5--
      G|------9-----8---8h9p8--------9-----4--6--
      D|------9-----9-9-------9-9/11---11--6--7--
      A|9/11----11-------------------------------
      E|-----------------------------------------
      
      
        E           B           C#m             A
      E|5h7p5------------------------------------
      B|------5-----9----7----------------9-----5
      G|------------9----8---8h9p8--------9-----6
      D|------------9----9-9-------9-9/11---11--7
      A|-------9/11---11-------------------------
      E|-----------------------------------------
      
        Composição: Anthony Kiedis / Chad Smith / Flea / John FruscianteColaboração e revisão:
        • jcfunkrock
        • pdrinho
        • d_antipou
        • xavier12
        • +7

        Comentários 155

        140 .
        • Daniel Daniel: Em 01/05/2014 18:43

          Introduçao a tab de D ta errada. Slide.
          D----4/6--6--
          A----5/7--7--
          essa parte.

        • j3f1nh0club j3f1nh0club: Em 18/04/2014 12:30

          Eu amo essa música! Excelente vídeo aula! Música muito gostosa de tocar! Patrick é o cara! Ensina muito bem! Aprovado!

        • vitoriatoledo vitoriatoledo: Em 11/03/2014 00:09

          https :/ / w w w.yo utube.co m/watch?v=ZJi5UE7f8Eo meu cover

        • lukewilkshire.lukwill lukewilkshire.lukwill: Em 23/12/2013 22:46

          Até que é fácil

        • leo130 leo130: Em 03/12/2013 17:11

          O começo da passagem parece panama do van halen

        • Cleiton Cleiton: Em 01/09/2013 12:44

          Vlw ,conseguir graça a voçes,so tem um pequeno erro que o Mr.Fuscriante Faz um Pull Of logo na in
          tro.Fora isso tudo certo.Vlw '

          • guilhermeixi guilhermeixi: Em 18/02/2015 04:05

            essa é a versão da alemanha ao vivo, se vc ouvi ta certinho

        140 cancelar
        0:00 / 0:00
        1 versão de baixo exibições contribuição e correção
        1 versão de bateria exibições contribuição e correção
        2 versões de gaita exibições contribuição e correção
        play/pausefechar subir/descer velocidade
        6ª corda E5ª corda A4ª corda D3ª corda G2ª corda B1ª corda E
          acordes
          publicidade
          fechar
          ok