Cifra Club

Under The Bridge

Red Hot Chili Peppers

Cifra: Simplificada (violão e guitarra)
Selo Cifra Club: esta cifra foi revisada para atender aos critérios oficiais da nossa Equipe de Qualidade.
tom: E (forma dos acordes no tom de D) Capotraste na 2ª casa
[Intro] C  E  C  E
        C  E  C  E

[Tab - Intro]

   C                            E 
E|-------------------------------------------|
B|----------1--------------------------------|
G|------0-----0------------------------1-----|
D|----2---2-------------------------2----2---|
A|--3--------------2-0------------2---2------|
E|---------------------3-2-0----0------------|

        C
E|-------------------------------------------|
B|-------------------------1--------1h3---3--|
G|-------------------0---------0----0h2---2--|
D|-2--0---------2--------2-------------------|
A|------3--0--3---3--------------------------|
E|-------------------------------------------|

    E                      C  
E|-------------------------------------------|
B|-----------------------------------1-------|
G|----------1--------------------0-----0-----|
D|------2-----2--2--0--------2-----2---------|
A|----2---2-----------3--0-3---3-------------|
E|--0----------------------------------------|

            E
E|-------------------------------------------|
B|-------------------------------------------|
G|------------------1------------------------|
D|--------------2-----2----------------------|
A|-2--0-------2---2--------------------------|
E|------3-2-0--------------------------------|

              C
E|-------------------------------------------|
B|-------------------------1--------1h3---3--|
G|-------------------0---------0----0h2---2--|
D|-2--0---------2--------2-------------------|
A|------3--0--3---3--------------------------|
E|-------------------------------------------|
    E
E|-------------------------------------------|
B|-------------------------------------------|
G|----------1--------------------------------|
D|-----2------2------------------------------|
A|---2---2-------2---------------------------|
E|-0-----------------------------------------|

[Primeira Parte]

D           A 
  Sometimes I feel
        Bm           F#m  G 
Like I don't have a part_ner
D           A 
  Sometimes I feel
      Bm       G           
Like my only friend
        D      A 
Is the city I live in
     Bm     F#m  G 
The city of an__gels
 D        A 
Lonely as I am
   Bm         G  D 
Together we cry

    D             A 
I drive on her streets
         Bm         F#m  G 
'Cause shes' my compa__nion
   D                A 
I walk through her hills
             Bm        G 
'Cause she knows who I am
     D            A 
She sees my good deeds
         Bm        F#m  G 
And she kisses me win__dy
D        A 
I never worry
      Bm       G  D 
Now that is a lie

[Refrão]

   Em         D           A
I don't ever want to feel
        Em 
Like I did that day
                     D      A
Take me to the place I love
      Em 
Take me all the way

   Em         D           A
I don't ever want to feel
        Em 
Like I did that day
                     D      A
Take me to the place I love
      Em 
Take me all the way

( D  A  Bm  F#m  G )  

[Segunda Parte]

      D         A 
It's hard to believe
                Bm  F#m   G
That there's nobody out there
      D         A 
It's hard to believe
         Bm    G 
That I'm all alone
    D            A 
At least I have her love
     Bm       F#m   G 
The city she loves me
 D        A 
Lonely as I am
   Bm         G  D 
Together we cry

[Refrão]

   Em         D           A
I don't ever want to feel
        Em 
Like I did that day
                     D      A
Take me to the place I love
      Em 
Take me all the way

              D           A
I don't ever want to feel
        Em 
Like I did that day
                     D      A
Take me to the place I love
      Em 
Take me all the way

( G  Gm  F  Eb )
( G  Gm  F  Eb )
( G  Gm  F  Eb )
( D7  F )

[Ponte]

 G                Gm 
Under the bridge downtown
F              Eb 
  Is where I drew some blood
G                 Gm 
Under the bridge downtown
   F     Eb 
I could not get enough

G                 Gm 
Under the bridge downtown
F        Eb 
  Forget about my love
G                 Gm 
Under the bridge downtown
F         Eb          
  I gave my life away

[Final] G  Gm  F  Eb
        G  Gm  F  Eb
        G  Gm  F  Eb
Outros vídeos desta música
    184.571 exibições
      • ½ Tom
      • A
      • Bb
      • B
      • C
      • Db
      • D
      • Eb
      • E
      • F
      • F#
      • G
      • Ab
    • Adicionar à lista

    Afinação da cifra

    Afinador online

      0 comentários

      Ver todos os comentários

      Conseguiu tocar?

      43Tocaram5Ainda não

      Grave um vídeo tocando Under The Bridge e nos envie!

      Toque também

      1. Imagem do artista AudioslaveLike a Stone Audioslave
      2. Imagem do artista Foo FightersEverlong Foo Fighters
      3. Imagem do artista Faith No MoreEasy Faith No More
      4. Imagem do artista IncubusDrive Incubus

      Entre para o Cifra Club PRO

      Tenha acesso a benefícios exclusivos no App e no Site

      • Chega de anúncios

      • Badges exclusivas

      • Mais recursos no app do Afinador

      • Atendimento Prioritário

      • Aumente seu limite de lista

      • Ajude a produzir mais conteúdo

      Capítulos
      • Início
      • Tocando a música
      • Acordes da Introdução
      • Tocando Introdução
      • Ensinando Introdução
      • Acordes da Primeira Parte
      • Tocando Primeira Parte
      • Ensinando Primeira Parte
      • Acordes do Refrão
      • Tocando Refrão
      • Ensinando Ritmo do Refrão
      • Ensinando Passagem
      • Tocando Segunda Parte
      • Ensinando Segunda Parte
      • Acordes da Terceira Parte
      • Tocando Terceira Parte
      • Ensinando Ritmo da Terceira Parte
      • Encerramento

      Cifra Club Pro

      Aproveite o Cifra Club com benefícios exclusivos e sem anúncios
      Cifra Club Pro
      Aproveite o Cifra Club com benefícios exclusivos e sem anúncios
      Ops (: Contenido disponible sólo en portugués.
      OK