Enviar cifraEntrar

Otherside

Red Hot Chili Peppers

Cifra: Principal
exibições 2.255.299
Tom: C
Introdução: Am  F  C  G


E|-----------------------------------------------------|
B|-----------------------------------------------------|
G|-----------------------------------------------------|
D|----------7--7--9-7-5--------------------------------|
A|-7--7--7--------------7----5--5--5-------------------|
E|-----------------------------------------------------|



Primeira Parte:


E|-----------------------------------------------------|
B|-----------------------------------------------------|
G|-----------------------------------------------------|
D|------------7--7--9-7-5------------------------------|
A|-7--7--7-7--------------7--7--7-7--5--5--5-----------|
E|-----------------------------------------------------|


E|-----------------------------------------------------|
B|-----------------------------------------------------|
G|-----------------------------------------------------|
D|------------7--7--9-7-5------------------------------|
A|-7--7--7-7--------------7--7--7-7--5--5--5-----------|
E|-----------------------------------------------------|


E|-----------------------------------------------------|
B|-----------------------------------------------------|
G|-----------------------------------------------------|
D|----------7--7--7--14--14--14------------------------|
A|-7--7--7-----------------------14--14--14--14--------|
E|-----------------------------------------------------|


Am                F
   How long, how long 
         C
Will I slide?
 G           Am  F
Separate my side
   C
I don’t
   G                  Am  F
I don’t believe it’s bad
  C
Slit my throat
     F
It’s all I ever


Segunda Parte:


E|--------8-------------------15-----------------------|
B|------5-----------------12---------------------------|
G|-----------------------------------------------------|
D|-----------------------------------------------------|
A|-----------------------------------------------------|
E|-5---------5-5--5/12-----------12\-------------------|


E|--------8-------------------15-----------------------|
B|------5------------------12--------------------------|
G|-----------------------------------------------------|
D|-----------------------------------------------------|
A|-----------------------------------------------------|
E|-5---------5-5--5/12--12-------12\-------------------|


E|--------8--------------------15----------------------|
B|------5------------------12--------------------------|
G|-----------------------------------------------------|
D|-----------------------------------------------------|
A|-----------------------------------------------------|
E|-5---------5-5-5-5/12-----------12\------------------|


E|-3----5----------------------------------------------|
B|-3----5----------------------------------------------|
G|-4----6----------------------------------------------|
D|-5----7----------------------------------------------|
A|-5----7----------------------------------------------|
E|-3----5----------------------------------------------|


Am
   I heard your voice 
            Em
Through a photograph
Am
   I thought it up 
           Em
It brought up the past
Am
   Once you know 
         Em
You can never go back
             G
I’ve got to take it on
    A
The otherside

Am
   Centuries are what
    Em
It meant to me
Am
   A cemetery 
         Em
Where I marry the sea
Am
   Stranger things could never 
  Em
Change my mind
             Am
I’ve got to take it on 
    Em
The otherside
 G             A
Take it on the otherside
 G
Take it on
 A
Take it on


Terceira Parte:


E|-----------------------------------------------------|
B|-----------------------------------------------------|
G|-----------------------------------------------------|
D|---------------7--7--9-7-5----------5--5--7----------|
A|-7p5--7--7--7--------------7--7--7-------------------|
E|-----------------------------------------------------|


E|-----------------------------------------------------|
B|-----------------------------------------------------|
G|-----------------------------------------------------|
D|------------7--7--9-7-5------------------------------|
A|-7--7--7-7--------------7--7--7--5--5--5--5----------|
E|-----------------------------------------------------|


E|-----------------------------------------------------|
B|-----------------------------------------------------|
G|-----------------------------------------------------|
D|-----------7--7--7/--14--14--14/--17--17--17--17-----|
A|-7--7--10--------------------------------------------|
E|-----------------------------------------------------|


Am               F
   How long, how long 
         C
Will I slide?
 G           Am  F
Separate my side
   C
I don’t
   G                  Am  F
I don’t believe it’s bad
  C
Slit my throat
     G
It’s all I ever


Quarta Parte:

Am
   Pour my life 
        Em
Into a paper cup
Am
   The ashtray’s full 
          Em
And I’m spillin’ my guts
Am
   She wants to know 
       Em
Am I still a slut
             G
I’ve got to take it on 
    A
The otherside

Am
   Scarlet starlet 
          Em
And she’s in my bed
Am
   A candidate 
        Em
For my soul mate bled
Am
   Push the trigger  
     Em
And pull the thread
             G
I’ve got to take it on 
    A
The otherside
 G             A
Take it on the otherside
 G
Take it on
 A
Take it on


Quinta Parte:


E|-----------------------------------------------------|
B|-----------------------------------------------------|
G|-9--9--9/--14--14--16-14-12-9--9--9--7--7--7---------|
D|-----------------------------------------------------|
A|-7--7--7/--12--12--14-12-10-7--7--7--5--5--5---------|
E|-----------------------------------------------------|


E|-----------------------------------------------------|
B|-----------------------------------------------------|
G|-9--9--9/--14--14--16-14-12-9--9--9--7--7--7---------|
D|-----------------------------------------------------|
A|-7--7--7/--12--12--14-12-10-7--7--7--5--5--5---------|
E|-----------------------------------------------------|


E|-----------------------------------------------------|
B|-----------------------------------------------------|
G|-9--9--12--5--5--4--5--5--5--------------------------|
D|-----------------------------5--5--5--5--------------|
A|-7--7--10--3--3--2--3--3--3--------------------------|
E|-----------------------------3--3--3--3--------------|


Am                F
   How long, how long 
         C
Will I slide?
 G           Am  F
Separate my side
   C
I don’t
   G                  Am  F
I don’t believe it’s bad
  C
Slit my throat
     G
It’s all I ever


Ponte:


E|-0----0----0---------------0-----0-------------------|
B|-0----0----0--------12----12----12-------------------|
G|-----------------------------------------------------|
D|-----------------------------------------------------|
A|-----------------------------------------------------|
E|-----------------------------------------------------|


E|-12----12----12---------0-----0-----0----------------|
B|--------0-----0--------12----12----12----------------|
G|-----------------------------------------------------|
D|-----------------------------------------------------|
A|-----------------------------------------------------|
E|-----------------------------------------------------|


E|-12----12----12---------0-----0-----0-----0----------|
B|--0-----0-----0--------12----12----12----12----------|
G|-----------------------------------------------------|
D|-----------------------------------------------------|
A|-----------------------------------------------------|
E|-----------------------------------------------------|


E|-12----12----12---------0-----0-----0-----0-----0----|
B|--0-----0-----0--------12----12----12----12----12\---|
G|-----------------------------------------------------|
D|-----------------------------------------------------|
A|-----------------------------------------------------|
E|-----------------------------------------------------|



Turn me on

Take me for a hard ride

Burn me out

Leave me on the otherside

I yell and tell 

It that it’s not my friend

I tear it down, I tear it down

And then it’s born again


Solo:


E|--0-----0----0--0----0-----0----0--0--0--------------|
B|-10----10---10-10/--17----17---17-17-17--------------|
G|-----------------------------------------------------|
D|-----------------------------------------------------|
A|-----------------------------------------------------|
E|-----------------------------------------------------|


E|--0--0--0--0--0--0--0--0--0--0--0--0--0--0--0--0-----|
B|-20-17-17-17-17-17-17-17-20-17-17-20-17-17-20-17-----|
G|-----------------------------------------------------|
D|-----------------------------------------------------|
A|-----------------------------------------------------|
E|-----------------------------------------------------|


Am                F
   How long, how long 
         C
Will I slide?
 G           Am  F
Separate my side
   C
I don’t
   G                  Am  F
I don’t believe it’s bad
  C
Slit my throat 
     G
It’s all I ever

Am
   How long?
I don't
I don’t believe it’s bad
Slit my throat
It’s all I ever had

(frase 1)


E|--0--0--0--0--0--0--0--0--0--0--0--0--0--0--0--0-----|
B|-17-17-17-17-17-17-17-17-17-17-17-17-17-17-17-17-----|
G|-----------------------------------------------------|
D|-----------------------------------------------------|
A|-----------------------------------------------------|
E|-----------------------------------------------------|


(frase 2)


E|--0--0--0--0--0--0--0--0--0--0--0--0--0--0--0--0-----|
B|-20-17-17-17-17-17-17-17-20-17-17-20-17-17-20-17-----|
G|-----------------------------------------------------|
D|-----------------------------------------------------|
A|-----------------------------------------------------|
E|-----------------------------------------------------|


(frase final)


E|--0--------------------------------------------------|
B|-10--------------------------------------------------|
G|-----------------------------------------------------|
D|-----------------------------------------------------|
A|-----------------------------------------------------|
E|-----------------------------------------------------|
  • 1
  • 2
  • 3
  • 4
  • 5
  • 6
  • 7
  • 8
  • 9
  • 10
  • 11
  • 12
    Acordes para:

      0 comentários

        mostrar mais comentários

        Conseguiu tocar?

        438tocaram7ainda não

        Grave um vídeo tocando Otherside e mande pra gente!

        00:00 / 00:00
        outros vídeos desta música
        repetirqualidadeautomática
        • automática
        Outro vídeos desta música
          Capítulos
          • Início
          • Tocando a introdução
          • Ensinando a introdução (parte 1)
          • Ensinando a introdução (parte 2)
          • Ensinando a introdução (parte 3)
          • Ensinando a introdução (parte 4)
          • Variações da introdução (parte 1)
          • Variações da introdução (parte 2)
          • Tocando a primeira parte
          • Acordes da segunda parte
          • Tocando a segunda parte
          • Ensinando o ritmo da segunda parte
          • Acordes da terceira parte
          • Tocando a terceira parte
          • Ensinando o ritmo da terceira parte
          • Tocando a quarta parte
          • Ensinando a quarta parte
          • Encerramento
          00:00 / 00:00
          automática
          • automática
          1 versão de Tab de baixoexibiçõescontribuições
          2 versões de Tab de bateriaexibiçõescontribuições
          3 versões de Tab de gaitaexibiçõescontribuições
          2 versões de Partiturasformatodownloadscontribuição
          fecharplay/pause subir/descer velocidade
            acordes
            fechar
            OK
            Feedback