Cifra Club

Dosed

Red Hot Chili Peppers

Cifra: Principal (violão e guitarra)
Selo Cifra Club: esta cifra foi revisada para atender aos critérios oficiais da nossa Equipe de Qualidade.
tom: G
[Intro] C7M  D  Em  C7M  D  Em
        C7M  D  Em  C7M  D  Em

[Tab - Guitarra 1]

   C7M
E|-----------------------------------------------------|
B|-17----------17----------17----------17--------------|
G|----------16----------16----------16-----------------|
D|-------17----------17----------17--------------------|
A|-----------------------------------------------------|
E|-----------------------------------------------------|

   D                       Em
E|-----------------------------------------------------|
B|-------15----------15----------12----------12--------|
G|----14----------14----------12----------12-----------|
D|-16----------16----------14----------14--------------|
A|-----------------------------------------------------|
E|-----------------------------------------------------|

   C7M
E|-----------------------------------------------------|
B|-------17----------17----------17----------17--------|
G|----16----------16----------16----------16-----------|
D|-17----------17----------17----------17--------------|
A|-----------------------------------------------------|
E|-----------------------------------------------------|

   D                       Em
E|-----------------------------------------------------|
B|-------15----------15----------12----------12--------|
G|----14----------14----------12----------12-----------|
D|-16----------16----------14----------14--------------|
A|-----------------------------------------------------|
E|-----------------------------------------------------|

   C7M
E|-----------------------------------------------------|
B|-------17----------17----------17----------17--------|
G|----16----------16----------16----------16-----------|
D|-17----------17----------17----------17--------------|
A|-----------------------------------------------------|
E|-----------------------------------------------------|

   D                       Em
E|-----------------------------------------------------|
B|-------15----------15----------12----------12--------|
G|----14----------14----------12----------12-----------|
D|-16----------16----------14----------14--------------|
A|-----------------------------------------------------|
E|-----------------------------------------------------|

   C7M
E|-----------------------------------------------------|
B|-------17----------17----------17----------17--------|
G|----16----------16----------16----------16-----------|
D|-17----------17----------17----------17--------------|
A|-----------------------------------------------------|
E|-----------------------------------------------------|

   D                       Em
E|-----------------------------------------------------|
B|-------15----------15----------12----------12--------|
G|----14----------14----------12----------12-----------|
D|-16----------16----------14----------14--------------|
A|-----------------------------------------------------|
E|-----------------------------------------------------|

[Tab - Guitarra 2]

   C7M
E|-----------------------------------------------------|
B|-------------5-----------------------5---------------|
G|-----------------------------------------------------|
D|-------5-----------------------5---------------------|
A|-3-----------------------3---------------------------|
E|-----------------------------------------------------|

   D                       Em
E|-----------------------------------------------------|
B|-------------7-----------------------8---------------|
G|-----------------------------------------------------|
D|-------7-----------------------9---------------------|
A|-5-----------------------7---------------------------|
E|-----------------------------------------------------|

[Tab - Guitarra 3]

E|-----------------------------------------------------|
B|-----------------------------------------------------|
G|-4--4--7----4----4-----------------------------------|
D|-----------------------------------------------------|
A|-----------------------------------------------------|
E|-----------------------------------------------------|

E|-----------------------------------------------------|
B|-----------------------------------------------------|
G|-4--4--7----4----4-----------------------------------|
D|-----------------------------------------------------|
A|-----------------------------------------------------|
E|-----------------------------------------------------|

E|-----------------------------------------------------|
B|-----------------------------------------------------|
G|-4--4--7----4----4-----------------------------------|
D|-----------------------------------------------------|
A|-----------------------------------------------------|
E|-----------------------------------------------------|

E|-----------------------------------------------------|
B|-----------------------------------------------------|
G|-4--4--7----9----4-----------------------------------|
D|-----------------------------------------------------|
A|-----------------------------------------------------|
E|-----------------------------------------------------|

[Tab - Guitarra 4]

E|-----------------------------------------------------|
B|-----------------------------------------------------|
G|-0---------------------------------------------------|
D|----4--2--0----2-------------------------------------|
A|-----------------------------------------------------|
E|-----------------------------------------------------|

[Primeira Parte]

[Tab - Guitarra 1]

   C7M
E|-----------------------------------------------------|
B|-------17----------17----------17----------17--------|
G|----16----------16----------16----------16-----------|
D|-17----------17----------17----------17--------------|
A|-----------------------------------------------------|
E|-----------------------------------------------------|

   D                       Em
E|-----------------------------------------------------|
B|-------15----------15----------12----------12--------|
G|----14----------14----------12----------12-----------|
D|-16----------16----------14----------14--------------|
A|-----------------------------------------------------|
E|-----------------------------------------------------|

[Tab - Guitarra 2]

   C7M
E|-----------------------------------------------------|
B|-------------5-----------------------5---------------|
G|-----------------------------------------------------|
D|-------5-----------------------5---------------------|
A|-3-----------------------3---------------------------|
E|-----------------------------------------------------|

   D                       Em
E|-----------------------------------------------------|
B|-------------7-----------------------8---------------|
G|-----------------------------------------------------|
D|-------7-----------------------9---------------------|
A|-5-----------------------7---------------------------|
E|-----------------------------------------------------|

[Tab - Guitarra 3]

E|-----------------------------------------------------|
B|-15--------------------------------------------------|
G|---------11-----12-----------------------------------|
D|-----------------------------------------------------|
A|-----------------------------------------------------|
E|-----------------------------------------------------|

E|-----------------------------------------------------|
B|-15--------------------------------------------------|
G|---------11-----12-----------------------------------|
D|-----------------------------------------------------|
A|-----------------------------------------------------|
E|-----------------------------------------------------|

E|-----------------------------------------------------|
B|-15--------------------------------------------------|
G|---------11-----12-----------------------------------|
D|-----------------------------------------------------|
A|-----------------------------------------------------|
E|-----------------------------------------------------|

E|-19--17--15--14----15--------------------------------|
B|-----------------------------------------------------|
G|-----------------------------------------------------|
D|-----------------------------------------------------|
A|-----------------------------------------------------|
E|-----------------------------------------------------|

E|-15--14--12--10----12--------------------------------|
B|-----------------------------------------------------|
G|-----------------------------------------------------|
D|-----------------------------------------------------|
A|-----------------------------------------------------|
E|-----------------------------------------------------|

E|-----------------------------------------------------|
B|-----------------------------------------------------|
G|-4--4--7----4----4-----------------------------------|
D|-----------------------------------------------------|
A|-----------------------------------------------------|
E|-----------------------------------------------------|

E|-----------------------------------------------------|
B|-----------------------------------------------------|
G|-4--4--7----4----4-----------------------------------|
D|-----------------------------------------------------|
A|-----------------------------------------------------|
E|-----------------------------------------------------|

[Tab - Guitarra 4]

E|-----------------------------------------------------|
B|-----------------------------------------------------|
G|-0---------------------------------------------------|
D|----4--2--0----2-------------------------------------|
A|-----------------------------------------------------|
E|-----------------------------------------------------|

C7M        D        Em     C7M
    I got dosed by you and
             D       Em     C7M
Closer than most to you and
              D        Em
What am I supposed to do?
 C7M
Take it away
   D           Em
I never had it anyway
 C7M
Take it away
    D                Em
And everything will be okay

( C7M  D  Em )

[Segunda Parte]

C7M            D      Em      C7M
    In you a star is born and
           D       Em       C7M
You cut a perfect form and
           D     Em
Someone forever warm
 C7M             D       Em
Lay on, lay on, lay on, lay on
 C7M             D       Em
Lay on, lay on, lay on, lay on

[Refrão]

   G                       D
E|-------------------------10----10-12----14-----------|
B|-12----12-13----13-13----10----10-10----10-----------|
G|-12----12-12----12-12----11----11-11----11-----------|
D|-12----12-12----12-12----12----12-12----12-----------|
A|-----------------------------------------------------|
E|-----------------------------------------------------|
    ↓     ↓  ↑     ↑  ↓     ↓     ↓  ↑     ↑  ↓

   Em                      C
E|-12----12-12----12-12-12----15----14----12-----------|
B|-12----12-12----12-12-12-13-12----12----12-15--------|
G|-12----12-12----12-12-12-12-12----12----12-12--------|
D|-14----14-14----14-14-14-14-14----14----14-14--------|
A|-----------------------------------------------------|
E|-----------------------------------------------------|
    ↓     ↓  ↑     ↑  ↓  ↑  ↓  ↑     ↑     ↑  ↓

   G                       D
E|-----------------------------------------------------|
B|-12----12-13----13-13----10----10-12----13-----------|
G|-12----12-12----12-12----11----11-11----11-----------|
D|-12----12-12----12-12----12----12-12----12-----------|
A|-----------------------------------------------------|
E|-----------------------------------------------------|
    ↓     ↓  ↑     ↑  ↓     ↓     ↓  ↑     ↑  ↓

   Em                      C
E|-12----12-12----12-12-12-----------------------------|
B|-12----12-12----12-12-12-13----12-12-15-12-12--------|
G|-12----12-12----12-12-12-12----12-12-12-12-12--------|
D|-14----14-14----14-14-14-14----14-14-14-14-14--------|
A|-----------------------------------------------------|
E|-----------------------------------------------------|
    ↓     ↓  ↑     ↑  ↓  ↑  ↓     ↓  ↑  ↓  ↑  ↓

   G                       D
E|-------------------------10----10-12----14-----------|
B|-12----12-13----13-13----10----10-10----10-----------|
G|-12----12-12----12-12----11----11-11----11-----------|
D|-12----12-12----12-12----12----12-12----12-----------|
A|-----------------------------------------------------|
E|-----------------------------------------------------|
    ↓     ↓  ↑     ↑  ↓     ↓     ↓  ↑     ↑  ↓

   Em                      C
E|-12----12-12----12-12-12----15----14----12-----------|
B|-12----12-12----12-12-12-13-12----12----12-15--------|
G|-12----12-12----12-12-12-12-12----12----12-12--------|
D|-14----14-14----14-14-14-14-14----14----14-14--------|
A|-----------------------------------------------------|
E|-----------------------------------------------------|
    ↓     ↓  ↑     ↑  ↓  ↑  ↓  ↑     ↑     ↑  ↓

   G                       D
E|-----------------------------------------------------|
B|-12----12-13----13-13----10----10-12----13-----------|
G|-12----12-12----12-12----11----11-11----11-----------|
D|-12----12-12----12-12----12----12-12----12-----------|
A|-----------------------------------------------------|
E|-----------------------------------------------------|
    ↓     ↓  ↑     ↑  ↓     ↓     ↓  ↑     ↑  ↓

   Em                      C
E|-12----12-12----12-12-12-----------------------------|
B|-12----12-12----12-12-12-13----13-15----15-15--------|
G|-12----12-12----12-12-12-12----12-12----12-12--------|
D|-14----14-14----14-14-14-14----14-14----14-14--------|
A|-----------------------------------------------------|
E|-----------------------------------------------------|
    ↓     ↓  ↑     ↑  ↓  ↑  ↓     ↓  ↑     ↑  ↓

 G            D                  Em  C
Way upon the mountain where she died
G           D               Em  C
All I ever wanted was your life
 G               D              Em  C
Deep inside the canyon I can't hide
G           D               Em  C
All I ever wanted was your life

[Terceira Parte]

C7M                 D    Em       C7M
    Show love with no remorse and
             D       Em       C7M
Climb on to your seahorse and
              D        Em
This ride is right on course
  C7M
This is the way
   D            Em
I wanted it to be with you
  C7M
This is the way
    D                 Em
I knew that it would be with you
 C7M             D       Em
Lay on, lay on, lay on, lay on
 C7M             D       Em
Lay on, lay on, lay on, lay on

[Refrão]

 G            D                  Em  C
Way upon the mountain where she died
G           D               Em  C
All I ever wanted was your life
 G               D              Em  C
Deep inside the canyon I can't hide
G           D               A2(7)  C9
All I ever wanted was your life

( C7M  D  Em )

[Quarta Parte]

C7M        D        Em     C7M
    I got dosed by you and
             D       Em     C7M
Closer than most to you and
              D        Em
What am I supposed to do?
 C7M
Take it away
   D           Em
I never had it anyway
 C7M
Take it away
    D                Em
And everything will be okay

( C7M  D  Em )
( C7M  D  Em )

[Refrão]

 G            D                  Em  C
Way upon the mountain where she died
G           D               Em  C
All I ever wanted was your life
 G               D              Em  C
Deep inside the canyon I can't hide
G           D               A2(7)  C9
All I ever wanted was your life

[Solo] C7M  D  Em
       C  G/B  Am  G

E|-12-10-12-10-12-10-12-10-12-10-----------------------|
B|-------------------------------12-12----12-12--------|
G|-----------------------------------------------------|
D|-----------------------------------------------------|
A|-----------------------------------------------------|
E|-----------------------------------------------------|

E|-12-10-12-10-12-10-12-10-12-10-----------------------|
B|-------------------------------12-12----12-12--------|
G|-----------------------------------------------------|
D|-----------------------------------------------------|
A|-----------------------------------------------------|
E|-----------------------------------------------------|

E|-----------------------------------------------------|
B|-13-13-13-13----13----12----8-8-8-7-8-8--------------|
G|-----------------------------------------------------|
D|-----------------------------------------------------|
A|-----------------------------------------------------|
E|-----------------------------------------------------|

E|-10-12--10--12--10--12--10---7-7---------------------|
B|-12-13--12--13--12--13--12---8-8---------------------|
G|-----------------------------------------------------|
D|-----------------------------------------------------|
A|-----------------------------------------------------|
E|-----------------------------------------------------|

E|-12-10-12-10-12-10-12-10-12-10-----------------------|
B|-------------------------------12-12----12-12--------|
G|-----------------------------------------------------|
D|-----------------------------------------------------|
A|-----------------------------------------------------|
E|-----------------------------------------------------|

E|-12-10-12-10-12-10-12-10-12-10-----------------------|
B|-------------------------------12-12----12-12--------|
G|-----------------------------------------------------|
D|-----------------------------------------------------|
A|-----------------------------------------------------|
E|-----------------------------------------------------|

E|-----------------------------------------------------|
B|-15----15-15----15-15-15-----------------------------|
G|-----------------------------------------------------|
D|-----------------------------------------------------|
A|-----------------------------------------------------|
E|-----------------------------------------------------|

E|-----------------------------------------------------|
B|-12b13----b13-b13----b13-b13r12--12------12----------|
G|-----------------------------------------------------|
D|-----------------------------------------------------|
A|-----------------------------------------------------|
E|-----------------------------------------------------|

E|-----------------------------------------------------|
B|-12b13r12----15~-------------------------------------|
G|-----------------------------------------------------|
D|-----------------------------------------------------|
A|-----------------------------------------------------|
E|-----------------------------------------------------|
Outros vídeos desta música
    297.417 exibições
      • ½ Tom
      • A
      • Bb
      • B
      • C
      • Db
      • D
      • Eb
      • E
      • F
      • F#
      • G
      • Ab
    • Adicionar à lista

    Afinação da cifra

    Afinador online

      0 comentários

      Ver todos os comentários

      Conseguiu tocar?

      71Tocaram2Ainda não

      Grave um vídeo tocando Dosed e nos envie!

      Toque também

      1. Imagem do artista AudioslaveLike a Stone Audioslave
      2. Imagem do artista Foo FightersEverlong Foo Fighters
      3. Imagem do artista Faith No MoreEasy Faith No More
      4. Imagem do artista IncubusDrive Incubus

      Entre para o Cifra Club PRO

      Tenha acesso a benefícios exclusivos no App e no Site

      • Chega de anúncios

      • Badges exclusivas

      • Mais recursos no app do Afinador

      • Atendimento Prioritário

      • Aumente seu limite de lista

      • Ajude a produzir mais conteúdo

      Capítulos
      • Tocando a Música
      • Explicando a Dinâmica da Música - Introdução
      • Ensinando a Guitarra 1 - Introdução
      • Ensinando a Guitarra 2 - Introdução
      • Ensinando a Guitarra 3 - Introdução
      • Ensinando a Guitarra 4 - Introdução
      • Explicando a Dinâmica da Música - Primeira Parte
      • Ensinando a Guitarra 3 - Primeira Parte
      • Explicando a Dinâmica da Música - Refrão
      • Ensinando a Guitarra 1 - Primeiro Refrão
      • Explicando a Dinâmica da Música - Restante da Músi
      • Ensinando a Guitarra 1 - Variação do Refrão
      • Ensinando o Solo Final
      • Encerramento

      Cifra Club Pro

      Aproveite o Cifra Club com benefícios exclusivos e sem anúncios
      Cifra Club Pro
      Aproveite o Cifra Club com benefícios exclusivos e sem anúncios
      OK