Cifra Club

Aprenda

Soul To Squeeze

Red Hot Chili Peppers

Cifra: Principal (violão e guitarra)
tom: F
[Intro] A
        F  C  Dm  Bb
        Dm  F  C  Gm
        F  C  Dm  Bb
        Dm  F  C  Gm

E|--------------------------------|
B|--------------------------------|
G|-----2----4b5r4p2---------2-----|
D|---2------------------2h4-------|
A|-0------0-----------0-----------|
E|--------------------------------|

E|--------------------------------|
B|---------------------5----------|
G|-----2-----2-----4/6---6/4-2----|
D|---2----2-----------------------|
A|-0--------0----0----------------|
E|--------------------------------|

E|--------------------------------|
B|--------------------------------|
G|-----2----4b5r4p2---------2-----|
D|---2------------------2h4-------|
A|-0------0-----------0-----------|
E|--------------------------------|

E|--------------------------------|
B|--------------------------------|
G|-------2--------0---------------|
D|----2------2--------------------|
A|-0------------------------------|
E|-------------3b---3b------------|

E|--------------------------------|
B|--------------------------------|
G|-----2----4b5r4p2---------2-----|
D|---2------------------2h4-------|
A|-0------0-----------0-----------|
E|--------------------------------|

E|---------------------5----------|
B|--------------------------------|
G|-----2-----2-----4/6---6/4-2----|
D|---2----2-----------------------|
A|-0--------0----0----------------|
E|--------------------------------|

E|--------------------------------|
B|--------------------------------|
G|-----2----4b5r4p2---------2-----|
D|---2------------------2h4-------|
A|-0------0-----------0-----------|
E|--------------------------------|

[Primeira Parte]

F             C      Dm  Bb    
  I've got a bad desease        
Dm             F        C       Gm
  Oh, from my brain is where I bleed
F        C     Dm   Bb         
  Insanity it seems             
Dm           F     C         Gm
  Has got me by my soul to squeeze

F               C         Dm  Bb 
  Well all the love from thee     
Dm              F      C        Gm
  With all the dying trees I scream
F            C       Dm   Bb     
  The angels in my dreams       
Dm              F          C          Gm
  Have turned to demons of greed that's mean

[Refrão]

  F           C
Where I go I just don't know
Dm                         Bb
  I got to, got to, gotta take it slow
  F             C
When I find my piece of mind
Dm                            Am      Bb
  I'm gonna give you some of my good time

[Segunda Parte]

F              C        Dm  Bb  
  Today love smiled on me      
Dm          F      C         Gm
  It took away my pain say please
F              C        Dm  Bb  
  I'll let your ride it free     
Dm               F      C      Gm
  You've got to let it be, oh yeah

[Refrão]

  F           C
Where I go I just don't know
Dm                         Bb
  I got to, got to, gotta take it slow
  F             C
When I find my piece of mind
Dm                            Am      Bb
  I'm gonna give you some of my good time

[Solo]

E|--------------------------------|
B|--------------------------------|
G|-12b14r12-10--12b14---10~-------|
D|--------------------------------|
A|--------------------------------|
E|--------------------------------|

E|--------------------------------|
B|-------------------13-----------|
G|-12b14-b14-b14-b14--------------|
D|--------------------------------|
A|--------------------------------|
E|--------------------------------|

E|--------------------------------|
B|--------------------------------|
G|--14-14r12-10-------10----------|
D|--------------10b---------------|
A|--------------------------------|
E|--------------------------------|

E|--------------------------------|
B|--------------------------------|
G|-12b14r12-10-12b14--10b12r10----|
D|-----------------------------12~|
A|--------------------------------|
E|--------------------------------|

E|--------------------------------|
B|-------------13b15r13-----------|
G|-12/14-14-14--------------------|
D|--------------------------------|
A|--------------------------------|
E|--------------------------------|

E|--------------------------------|
B|--------------------------------|
G|-14-14--\12--\10--\9--\7--------|
D|--------------------------------|
A|--------------------------------|
E|--------------------------------|

[Terceira Parte]

F           C      Dm  Bb     
  Oh, so polite indeed        
Dm           F      C      Gm
  Well I got everything I need
F              C       Dm  Bb   
  Oh, make my days a breeze     
Dm           F      C        Gm
  And take away my self destruction

[Ponte]

F                            C
  It's bitter baby and it's very sweet
    Dm                          Bb
I'm on a roller coaster but I'm on my feet
 F                          C
Take me to the river let me on your shore
     Dm                  
I'll be coming back baby
      Bb
I'll be coming back for more
 F                      C
Doo doo doo doo dingle zing a dong bone
    Dm                 Bb
Ba-di ba-da ba-zumba crunga cone gone bad
F                      
I could not forget but 
C
I will not endeavor 
     Dm                             
Simple pleasures aren't as special
       Bb
But I won't regret it never

[Refrão]

  F           C
Where I go I just don't know
Dm                         Bb
  I got to, got to, gotta take it slow
  F             C
When I find my piece of mind
Dm                            Am      Bb
  I'm gonna give you some of my good time

  F           C
Where I go I just don't know
Dm                             Bb
  I might end up somewhere in Mexico
  F              C
When I found my piece of mind
Dm                          Am      Bb  F
  I'm gonna keep it for the end of time
Composição de Anthony Kiedis / Chad Smith / Flea / John Frusciante
157.038 exibições
    • ½ Tom
    • A
    • Bb
    • B
    • C
    • Db
    • D
    • Eb
    • E
    • F
    • F#
    • G
    • Ab
  • Adicionar à lista

    0 comentários

    Ver todos os comentários

    Conseguiu tocar?

    31 Tocaram 2 Ainda não

    Grave um vídeo tocando Soul To Squeeze e nos envie!

    00:00 / 00:00
    Outros vídeos desta música
    Repetir Qualidade Automático
    Outros vídeos desta música
    00:00 / 00:00
    Automático

    Cifra Club Pro

    Aproveite o Cifra Club com benefícios exclusivos e sem anúncios
    Cifra Club Pro
    Aproveite o Cifra Club com benefícios exclusivos e sem anúncios
    OK