Cifra Club

Otherside

Red Hot Chili Peppers

Tab de baixo: Principal
exibições 207.805
Introdução

Parte 01 de 01

G|----------------------------------------------|
D|----------------------------------------------|
A|---------------------3-3--3-3-----------------|
E|-5--5--5-3--1-1--1-1----------0-3-3-3---------|

Refrão 01 

How long, how long will I slide ?

Parte 01 de 01

G|----------------------------------------------|
D|----------------------------------------------|
A|---------------------3-3--3-3-----3-2---------|
E|-5--5--5-3--1-1--1-1----------0-3-----3-------|

G|----------------------------------------------|
D|-----------------------------------5----------|
A|---------------------3-3--3-3-----------------|
E|-5--5--5-3--1-1--1-1----------0-3----3--------|

G|----------------------------------------------|
D|----------------------------------------------|
A|---------------------3-3--3-3-----------------|
E|-5--5--5-3--1-1--1-1----------0-3-3-3--3-3----|

Primeira parte 

Parte 01 de 04

G|----------------------------------------------|
D|------------------7/14-14-14-14--14-14-14\----|
A|-0-0-0-0--0-0-0-0-----------------------------|
E|----------------------------------------------|

G|----------------------------------------------|
D|------------------7/14--------------14\-------|
A|-0-0-0-0--0-0-0-0-------14-14-14-14-----------|
E|----------------------------------------------|

Parte 02 de 04

G|----------------------------------------------|
D|------------------7/14-14-14-14--14-14-14\----|
A|-0-0-0-0--0-0-0-0-----------------------------|
E|----------------------------------------------|

G|----------------------------------------------|
D|----------------------------------------------|
A|----------------------------------------------|
E|-3-5------------------------------------------|

Parte 03 de 04

G|----------------------------------------------|
D|-------------7/14--14-14--14-14\--------------|
A|-0--0-0--0-0----------------------------------|
E|----------------------------------------------|

G|----------------------------------------------|
D|-------------7/14-----------14\---------------|
A|-0--0-0--0-0------14-14--14-------------------|
E|----------------------------------------------|

G|----------------------------------------------|
D|-------------7/14--14-14---14\----------------|
A|-0--0-0--0-0----------------------------------|
E|----------------------------------------------|

Parte 04 de 04

G|----------------------------------------------|
D|----------------------------------------------|
A|----0---0--10--10-10--10-10-10--10--10-10-----|
E|-3----3---------------------------------------|

G|----------------------------------------------|
D|----------------------------------------------|
A|-10-10-10--12--12-12--12-12----12----12----12-|
E|----------------------------12----12----12----|

G|----------------------------------------------|
D|----------------------------------------------|
A|----12----------------------------------------|
E|-12----12\------------------------------------|

Refrão 02 

How long, how long will I slide ?

Parte 01 de 02

G|----------------------------------------------|
D|----------------------------------------------|
A|--------------------------3--3-3-5-3----------|
E|-5--5-5-5-3-1--1-1--1-1-1------------0-3--3-3-|

G|----------------------------------------------|
D|----------------------------------------------|
A|----------------------------3--3-3-3-3--------|
E|-3-5--5-5-5-3-1--1-1--1-1-1------------0-3----|

Parte 02 de 02

G|----------------------------------------------|
D|----------------------------------------------|
A|-3-2-----------------------------3--3-3-3-3---|
E|-----3--5--5-5-5-3-1--1-1--1-1-1--------------|

G|----------------------------------------------|
D|----------------------------------------------|
A|----------------------------------------------|
E|-0-3-3-3-3------------------------------------|

Terceira parte

Scarlet starlet and she’s in my bed...

Parte 01 de 04

G|----------------------------------------------|
D|---------------7/14--14-14--14-14\------------|
A|-0--0-0--0-0-0--------------------------------|
E|----------------------------------------------|

G|----------------------------------------------|
D|---------------7/14-----------14\-------------|
A|-0--0-0--0-0-0------14-14--14-----------------|
E|----------------------------------------------|

Parte 02 de 04

G|----------------------------------------------|
D|---------------7/14--14-14--14-14\------------|
A|-0--0-0--0-0-0--------------------------------|
E|----------------------------------------------|

G|----------------------------------------------|
D|----------------------------------------------|
A|----------------------------------------------|
E|-3-5------------------------------------------|

Parte 03 de 04

G|----------------------------------------------|
D|---------------7/14--14-14--14-14\------------|
A|-0--0-0--0-0-0--------------------------------|
E|----------------------------------------------|

G|----------------------------------------------|
D|---------------7/14-----------14\-------------|
A|-0--0-0--0-0-0------14-14--14-----------------|
E|----------------------------------------------|

G|----------------------------------------------|
D|---------------7/14--14-14---14\--------------|
A|-0--0-0--0-0-0--------------------------------|
E|----------------------------------------------|

Parte 04 de 04

G|----------------------------------------------|
D|----------------------------------------------|
A|----0---0--10--10-10--10-10-10-10--10-10-10---|
E|-3----3---------------------------------------|

G|----------------------------------------------|
D|----------------------------------------------|
A|-10-10-10--12--12-12--12-12-----12----12------|
E|-----------------------------12----12---------|

G|----------------------------------------------|
D|----------------------------------------------|
A|----12----12----------------------------------|
E|-12----12----12-------------------------------|

Refrão 03 

How long, how long will I slide ?

Parte 01 de 01

G|----------------------------------------------|
D|----------------------------------------------|
A|--------------------------3--3-3-3-3----------|
E|-5--5-5-5-3-1--1-1--1-1-1------------0-3--3-3-|

G|----------------------------------------------|
D|----------------------------------------------|
A|-3-2---------------------------3--3-3-3-3-----|
E|-----3-5-5-5-5-3-1--1-1--1-1-1------------0-3-|

Parte 02 de 02

G|----------------------------------------------|
D|----------------------------------------------|
A|-3-2-5---------------------------3--3-3-3-3---|
E|--------5--5-5-5-3-1--1-1--1-1-1--------------|

G|----------------------------------------------|
D|----------------------------------------------|
A|----------------------------------------------|
E|-0-3--3-3--3-3-3------------------------------|

Quarta parte

Turn me on, take me for a hard ride...

Parte 01 de 02

G|----------------------------------------------|
D|---------------------------------5-4----------|
A|---7-5-7---7-5-7---0-2-3-3-2-3-3-----5--------|
E|-0-------0-------0----------------------------|

G|----------------------------------------------|
D|---------------------------------5-4---4-5-4--|
A|-----7-5-7---7-5-7--0-2-3-3-2-3-3---7-------7-|
E|-0-0-------0------0---------------------------|

Parte 02 de 02

G|----------------------------------------------|
D|-----------------------------------5-4--------|
A|---7---5-7---7-5-7---0-2-3-3-2-3-3-----5------|
E|-0---0-----0-------0--------------------------|

G|----------------------------------------------|
D|---------------------------------5-4----------|
A|---7-5-7---7-5-7---0-2-3-3-2-3-3-----5--------|
E|-0-------0-------0----------------------------|

Refrão 04 

How long, how long will I slide ?

Parte 01 de 04

G|----------------------------------------------|
D|----------------------------------------------|
A|--------------------------3--3-3-3-3----------|
E|-5--5-5-5-3-1--1-1--1-1-1------------0-3--3-3-|

G|----------------------------------------------|
D|----------------------------------------------|
A|-3-2---------------------------3--3-3-3-3-----|
E|-----3-5-5-5-5-3-1--1-1--1-1-1------------0-3-|

Parte 02 de 04

G|----------------------------------------------|
D|--------------------------3--3-3--3-5-3-------|
A|------------0--0-0--0-0-0---------------------|
E|-3-3--3-3-3-----------------------------------|

G|----------------------------------------------|
D|----------------------------------------------|
A|-3--3-3--5-3-----3-2--------------------------|
E|-------------0-3-----3------------------------|

Parte 03 de 04

G|----------------------------------------------|
D|----------------------------------------------|
A|--------------------------3--3-3-3-3----------|
E|-5--5-5-5-3-1--1-1--1-1-1------------0-3------|

G|----------------------------------------------|
D|-5-5-5---5------------------------------------|
A|----------------------------------------------|
E|-------3--------------------------------------|

Parte 04 de 04

G|----------------------------------------------|
D|----------------------------------------------|
A|--------------------------3--3-3-3-3----------|
E|-5--5-5-5-3-1--1-1--1-1-1------------0-3--3-3-|

G|-----------------------------------5--5-5-----|
D|---------------------3--3-3--3-3-3------------|
A|-----------------3-5--------------------------|
E|-0-3-4-5--5-5--5------------------------------|

G|-5-5-5----------------------------------------|
D|-------0-5--5-5-5-----------------------------|
A|------------------0-3-------------------------|
E|----------------------5-----------------------|
Composição: Anthony Kiedis / Chad Smith / Flea / John FruscianteColaboração e revisão:
  • Reginaldo Costa

0 comentários

    mostrar mais comentários

    Conseguiu tocar?

    39tocaram0ainda não

    Grave um vídeo tocando Otherside e mande pra gente!

    00:00 / 00:00
    outros vídeos desta música
    repetirqualidadeautomática
    Outro vídeos desta música
      00:00 / 00:00
      automática
      Capítulos
      • Tocando a música
      • Apresentação / Equipamentos
      • Introdução
      • Refrão 1
      • Primeira Parte - Parte 1 de 4
      • Primeira Parte - Parte 2 de 4
      • Primeira Parte - Parte 3 de 4
      • Primeira Parte - Parte 4 de 4
      • Dicas Segundo Refrão - Terceiro Refrão
      • Segundo Refrão - Parte 1 de 2
      • Segundo Refrão - Parte 2 de 2
      • Terceira Parte - Parte 1 de 4
      • Terceira Parte - Parte 2 de 4
      • Terceira Parte - Parte 3 de 4
      • Terceira Parte - Parte 4 de 4
      • Terceiro Refrão - Parte 1 de 2
      • Terceiro Refrão - Parte 2 de 2
      • Dicas Quarta Parte e Refrão
      • Quarta Parte - Parte 1 de 2
      • Quarta Parte - Parte 2 de 2
      • Quarto Refrão - Parte 1 de 4
      • Quarto Refrão - Parte 2 de 4
      • Quarto Refrão - Parte 3 de 4
      • Quarto Refrão - Parte 4 de 4
      • Encerramento
      OK