Cifra Club

Cars Hiss By My Window

The Doors

Tab de baixo: Principal
exibições 462
(intro / verso)

G|--------------------------------------------------------------------------|
D|--------------------------------------------------------------------------|
A|-------------------2----2--4----2------------------2----2--4----2---------|
E|---0----0--3----4------------------0----0--3----4-------------------------|

G|--------------------------------------------------------------------------|
D|-------------------2----2--4----2------------------2----2--4----2---------|
A|---0----0--3----4------------------0----0--3----4-------------------------|
E|--------------------------------------------------------------------------|

(refrão)
G|----------------------------------------------------------------------|
D|--------------------4----4--6----4------------------2----2--4----2----|
A|----2----2--5----6------------------0----0--3----4--------------------|
E|----------------------------------------------------------------------|

G|-------------------------------------------------------------|
D|------------------------------------2---------------0--------|
A|--------------------2----2--4----2---------0--1--2-----------|
E|----0----0--3----4-------------------------------------------|
Composição: Jim Morrison / John Densmore / Ray Manzarek / Robby KriegerColaboração e revisão:
  • James Hamlet

0 comentários

    mostrar mais comentários

    Conseguiu tocar?

    1tocaram0ainda não

    Grave um vídeo tocando Cars Hiss By My Window e mande pra gente!

    00:00 / 00:00
    outros vídeos desta música
    repetirqualidadeautomática
    Outro vídeos desta música
      00:00 / 00:00
      automática
      OK