Cifra Club

L.A. Woman

The Doors

Tab de baixo: Principal
exibições 8.778
A intro (O:OO)        (O:17)       play 27 times
|-----|-----|--------|--------------------------|
|-----|-----|--------|*------------------------*|
|-----|-----|--------|*------------------------*|
|-----|-----|--3--5--|--5--5--5--5--5--O--3--4--|

B 1st - 4th verses
   just...
      (play 17 times)        (2nd time) TO CODA
|--------------------------|----------------------------|-------------------------|
|*------------------------*|----------------------------|-------------------------|
|*------------------------*|----------------------------|-------------------------|
|--5--5--5--5--5--O--3--4--|--5--5--5--5--5--O--5--(5)--|--3--3--3--3--3---3--3/--|

|------------------------|---------------------|---------------------|
|----------5--(5)-----7--|---------------------|---------------------|
|----5--7----------7-----|---------------------|---------------------|
|/7----------------------|--5---5--5--O--3--4--|--5--3--5---5--3--5--|

|---------------------------|------------------------|----------------------------|
|---------------------------|----------5--(5)-----7--|*--------------------------*|
|---------------------------|----5--7----------7-----|*--------------------------*|
|--3--3--3--3--3--3--3--3/--|/7----------------------|--5--5--5--5--5--O--3--4----|

C 1st guitar solo (1:31)
 (play 24 times)
|--------------------------|
|*------------------------*|
|*------------------------*|
|--5--5--5--5--5--O--3--4--|

D 2nd verse (2:O5)
   l.a. woman...
   (play 15 times)
|--------------------------|--------------------------|------------------------|
|*------------------------*|--------------------------|------------------------|
|*------------------------*|--------------------------|------------------------|
|--5--5--5--5--5--O--3--4--|--5--5--5--5--5--O--5--5--|--3-----3--3--3--3--3/--|

|---------------------------|--------------------------|---------------------------|
|----------5--(5)------6/7--|*------------------------*|---------------------------|
|----5--7-----------7-------|*------------------------*|---------------------------|
|/7-------------------------|--5--5--5--5--5--3--5--5--|--3--3--3--3--3--3--3--3/--|

|---------------------------|--------------------------|--------------------------|
|-----------5--(5)-----6/7--|--------------------------|--------------------5--7--|
|-----5--7----------7-------|--------------------------|--------------5--7--------|
|/7-------------------------|--5--5--5--5--5--O--3--4--|--5--5--5--5--------------|

E piano solo (2:39)
   (play 16 times)
|--------------------------|
|*------------------------*|
|*------------------------*|
|--5--5--5--5--5--O--3--4--|

F 1st interlude (3:O1)
   (play 8 times)
|------------------------------|
|*--------7--5--(5)-----------*|
|*--4--7-------------7--4--5--*|
|------------------------------|

G 3rd verse (3:13)
   see your hair...
   (play 23 times)                                                (play 3 times)
|------------------------------|----------------------------|---------------------------|
|*--------7--5--(5)-----------*|--------7--5--(5)-----------|*--5/7---5/7---5/7---7--7-*|
|*--4--7-------------7--4--5--*|--4--7-------------5--7--O--|*-------------------------*|
|------------------------------|----------------------------|---------------------------|

|--------------------------|---------------------|------------------------|
|--7--7--7--7--7--7--7--7--|--7--7--7--7---------|------------------------|
|--------------------------|--------------7\-----|------------------------|
|--------------------------|------------------5--|--3-----3--3--3--3--3/--|

|--------------------------|--------------------------|-------------------------------|
|----------5--(5)-----6/7--|--------------------------|-------------------------------|
|----5--7----------7-------|--5-----7-----7--7--7--7--|--6---5---3--------------------|
|/7------------------------|--------------------------|--------------5---(5)---O---7--|

|----------------------------------|--------------------------------|
|----------------------------------|-------------5---(5)-------6/7--|
|----------------------------------|-----5---7-------------7--------|
|--3---3---3---3---3---3---3---3/--|/7------------------------------|

   (play 1O times)
|--------------------------|
|*------------------------*|
|*------------------------*|
|--5--5--5--5--5--O--3--4--|

H 2nd interlude (4:18)
|---------------------------|------------------------------|--------------------------|
|-----/7---(7)--5-----------|-----/7--(7)--7--7---5/7--7\--|-----/7--(7)--7--------5--|
|------------------7--5--3--|------------------------------|-----------------5--7-----|
|--5------------------------|--5---------------------------|--5-----------------------|

|-------------------------------|-----------------------------|------------------------------|
|-----5/7--(7)--7--5-----5--7\--|-----/7--(7)--7--7-----------|------------------------------|
|---------------------7---------|--------------------6--5--3--|------------------------------|
|--5----------------------------|--5--------------------------|--5-----(5)-----O---3---5--3--|

   (play 6 times)
|--------------------------------|
|*------------------------------*|
|*------------------------------*|
|--5-----(5)---5--5--3--5--5--3--|

I (4:56)
   mojo risin'...
|---------------------------|---------------------------|-------------------------------|
|---------------------------|---------------------------|*------------------------------|
|--------------3------------|--------------3------------|*-----------------3------------|
|--5-----5-----------5---3--|--5---5---5---------5---3--|--5---5---5---5---------5---3--|

        (play 14 times)
|---------------------------------|-------------------------------|--------------------------|
|--------------------------------*|-------------------------------|--------------------------|
|--------------3---(3)-----------*|------------------3------------|-----------------------2--|
|--5---5---5---------------5---3--|--5---5---5---5---------5---3--|--5--5--5--5--5--5--5-----|

J 2nd guitar solo (6:O3)

|--------------------------|--------------------------|-----------------------------|
|--------------------------|--------------------------|-----------------------------|
|--3--3--3--3--3--3--3--3--|--3--3--3--3--3-----------|--3---3----------------------|
|--------------------------|-----------------5--3--5--|----------O---O---1---3---3--|

                                       (play 3 times)
|---------------------------------|---------------------------|--------------------------|
|---------------------------------|*-------------------------*|--------------5-----5--7--|
|--------------2---3---3---2---3--|*--5--5--5--5--5----------*|--5--5--5--7-----7--------|
|--3---3---5----------------------|------------------7--5--7--|--------------------------|

   (play 3 times)                 CODA (back to B)
|--------------------------|--------------------------|
|*------------------------*|--------------------------|
|*------------------------*|--------------------------|
|--5--5--5--5--5--O--3--4--|--5--5--5--5--5--O--3--4--|

CODA (6:46)
|---------------------------------|----------------------------------|
|---------------------------------|----------------------------------|
|---------------------------------|----------------------------------|
|--5---5---5---5---5---O---5---5--|--3---3---3---3---3---3---3---3/--|

|------------------------------|----------------------------------|
|-------------7---(5)-------7--|-------------------------------7--|
|-----5---7-------------7------|--5/7--7---7---7---7---5---7------|
|/7----------------------------|----------------------------------|

|-----------------------------|--------------------------------|
|--(7)---5--------------------|--------------------------------|
|--------------7---5---3------|--------------------------------|
|--------------------------5--|--3---3---3-----3---3---3---3/--|

|------------------------------|---------------------------------|
|-------------5---(5)-------7--|*-------------------------------*|
|-----5---7-------------7------|*-------------------------------*|
|/7----------------------------|--5---5---5---5---5---O---3---4--|

K 3rd guitar solo (6:59)
   (play 8 times)
|---------------------------------|
|*-------------------------------*|
|*-------------------------------*|
|--5---5---5---5---5---O---3---4--|

L outro (7:11)
   l.a. woman...
   (play 24 times and fade out)
|---------------------------------|
|*-------------------------------*|
|*-------------------------------*|
|--5---5---5---5---5---O---3---4--|







_______________________________________________________
Contribuição: Cristina(crisgs@msn.com)

0 comentários

    mostrar mais comentários

    Conseguiu tocar?

    0tocaram0ainda não

    Grave um vídeo tocando L.A. Woman e mande pra gente!

    00:00 / 00:00
    outros vídeos desta música
    repetirqualidadeautomática
    Outro vídeos desta música
      00:00 / 00:00
      automática
      OK