Cifra Club

Aprenda

Era Uma Casa

Toquinho

Cifra: Versão 2 (violão e guitarra)
tom: A
e|----------------------------------------------------|
B|---------------10-9-10------------------------------|
G|-----------9-----------9---9-9-9--------------------|
D|--11-11-11--11-----------11-----12--9-12-12-12-11-7-|
A|----------------------------------------------------|
E|----------------------------------------------------|

    Era uma casa muito engraçada naum tinha teto naum tinha nada

e|----------------------------------------------------|
B|----------------10-9-10-----------------------------|
G|-----------9------------9-9-9-9---------------------|
D|--11-11-11---11-----------------12-10-12-12-12-11-7-|
A|----------------------------------------------------|
E|----------------------------------------------------|

    Ninguém  podia   entra   nela  naum  porque  na  casa naum tinha  chão

e|---------------------------------------------------------|*
B|--10-10-10-10---10-10-10-10------------------------------|*
G|--------------9----------------9-9-9---------------------|*
D|----------------------------11-------12-10-12-12-12-11-7-|*
A|---------------------------------------------------------|*
E|---------------------------------------------------------|*

     Ninguém podia dormir na rede porque na casa naum tinha parede

e|---------------------------------------------------------|*
B|--10-10-10-10---10-10-10-10------------------------------|*
G|--------------9----------------9-9-9---------------------|*
D|----------------------------11-------12-10-12-12-12-11-7-|*
A|---------------------------------------------------------|*
E|---------------------------------------------------------|*

     Ninguém podia fazer pipi porque pinico naum tinha  ali 

e|----------------------------------------------------|
B|---------------10-9-10-----------9-9-9-7-9-10-------|
G|-----------9-----------9---9-9-9--------------------|
D|--11-11-11--11-----------11-------------------------|
A|----------------------------------------------------|
E|----------------------------------------------------|

     Mais era feita com muito esmero na rua dos bobos número zero
Compositor não encontrado.
Colaboração e revisão:
  • renato silva
3.129 exibições
    • ½ Tom
    • A
    • Bb
    • B
    • C
    • Db
    • D
    • Eb
    • E
    • F
    • F#
    • G
    • Ab
  • Adicionar à lista

    0 comentários

    Ver todos os comentários

    Conseguiu tocar?

    0 Tocaram 0 Ainda não

    Grave um vídeo tocando Era Uma Casa e nos envie!

    00:00 / 00:00
    Outros vídeos desta música
    Repetir Qualidade Automático
    Outros vídeos desta música
    00:00 / 00:00
    Automático

    Cifra Club Pro

    Aproveite o Cifra Club com benefícios exclusivos e sem anúncios
    Cifra Club Pro
    Aproveite o Cifra Club com benefícios exclusivos e sem anúncios
    OK