Cifra Club

Aprenda

I Wanna Rock

Twisted Sister

Cifra: Versão 4 (violão e guitarra)
Tom: A
                             I WANNA ROCK

Tabbed by: Cortney C.
Email: NCGERLS@*

Standard Tuning

I wanna rock!

-----------------------------------------------------------|
-----------------------------------------------------------|
-----------------------------------------------9-5--   X 2-|
--7---5555--12121212--2-5-7-7--5555--12121212--9-5-7-------|
--7---5555--12121212--2-3-7-7--5555--12121212--7-3-5-------|
--5---3333--10101010--0-3-5-5--3333--10101010------5-------|

(Guitar silent) Turn it down you say, well all I've gotta say is time and time again I say-

---------------------------|
---------------------------|
-----------------77--------|
------7----55----77-----57-|
------7----55----55-----57-|
------5----33-----------35-|
No! (no!) no-no no-no no

(Guitar silent) Tell me not to play, well all I've gotta say when you tell me not to play is-

------------------------|
------------------------|
-----------------77-----|
------7----55----77-----|
------7----55----55-----|
------5----33-----------|
No! (no!) no-no no-no no

------------------------|
------------------------|
---7------7777-----55-7-|
--57--555577775555-5557-|
--55--555555555555-3355-|
--3---3333----3333---3--|
      When its...

I wanna rock!

-----------------------------------------------------------|
-----------------------------------------------------------|
-----------------------------------------------9-5--   X 2-|
--7---5555--12121212--2-5-7-7--5555--12121212--9-5-7-------|
--7---5555--12121212--2-3-7-7--5555--12121212--7-3-5-------|
--5---3333--10101010--0-3-5-5--3333--10101010------5-------|


(Guitar silent) Turn the power up, I've waited for so long so I can hear my favorite song so lets-

---------------------------|
---------------------------|
-----------------77--------|
------7----55----77-----57-|
------7----55----55-----57-|
------5----33-----------35-|
Go! (go!) go-go go-go go

(Guitar silent) Tell me not to play, well all I've gotta say when you tell me not to play is-

------------------------|
------------------------|
-----------------77-----|
------7----55----77-----|
------7----55----55-----|
------5----33-----------|
Go! (go!) go-go go-go go

------------------------|
------------------------|
---7------7777-----55-7-|
--57--555577775555-5557-|
--55--555555555555-3355-|
--3---3333----3333---3--|
      When its...

I wanna rock!

-----------------------------------------------------------|
-----------------------------------------------------------|
-----------------------------------------------9-5--   X 2-|
--7---5555--12121212--2-5-7-7--5555--12121212--9-5-7-------|
--7---5555--12121212--2-3-7-7--5555--12121212--7-3-5-------|
--5---3333--10101010--0-3-5-5--3333--10101010------5-------|

------------------------------------------------|
------------------------------------------------|
-----------------------------------------   X 2-|
--7-----7-----7---25--7-----7-----7----95-------|
--5-----5-----5---23--5-----5-----5----95-------|
--5-----5-----5---03--5-----5-----5----73-------|
Rock! Rock! Rock!    Rock! Rock! Rock!

(Solo)

---------5---------------------10^10^-12108--108--108----8101210121012-|
-8^8^8^8^-85--5----------8108-8------------10---10---10_---------------|
------------7^-75-75~--7^----9-----------------------------------------|
-----------------7-----------------------------------------------------|
-----------------------------------------------------------------------|
-----------------------------------------------------------------------|

-15^15^171512----15---------------------------------|
-------------1517--1513151513--13---17---17---17----|
-----------------------------14--14_--20^--20^--20--|
----------------------------------------------------|
----------------------------------------------------|
----------------------------------------------------|

------------------------------|
172017--1720---1720^--15^-15--|
------19----19^---------------|
------------------------------|
------------------------------|
------------------------------|

(Fill Ins)

-------------------------------------|
-13----------------------------20----|
---14_----757577^------17---19^--19^-|
---------------------19--19----------|
-------------------------------------|
-------------------------------------|
Composição de Dee Snider
2.501 exibições
  • Simplificar cifra
    • ½ Tom
    • A
    • Bb
    • B
    • C
    • Db
    • D
    • Eb
    • E
    • F
    • F#
    • G
    • Ab
  • Adicionar à lista

    0 comentários

    Mostrar mais comentários

    Conseguiu tocar?

    0 Tocaram 0 Ainda não

    Grave um vídeo tocando I Wanna Rock e mande pra gente!

    00:00 / 00:00
    outros vídeos desta música
    repetir qualidade Automático
    Outros vídeos desta música
    00:00 / 00:00
    Automático

    Cifra Club Pro

    Aproveite o Cifra Club com benefícios exclusivos e sem anúncios
    7 dias grátis
    Cifra Club Pro
    Aproveite o Cifra Club com benefícios exclusivos e sem anúncios
    7 dias grátis
    OK