Cifra Club

I Believed In Father Christmas

U2

Cifra: Principal (violão e guitarra)
Tom: A
INTRO:
E|----------------------------------------------------------------------------------|
A|----------------------------------------------------------------------------------|
D|----------------------------------------------------------------------------------|
G|----------------------------------------------------------------------------------|
B|---19--19---17--17---15--15---14--14---12--12---10-10---8-8---7-7--7/8---8/10-----|
E|-17--17---15--15---14--14---12--12---10--10----9--9----7-7---5-5------7------9----|


E|----------------------------------------------------------------------------------------|
A|----------------------------------------------------------------------------------------|
D|----------------------------------------------------------------------------------------|
G|----------------------------------------------------------------------------------------|
B|--7-7--7/8---8/10----7-7--7/8---8/10----7-7--7/8---8/10----7-7--7-7--7-7--7-7--7-7--7-7-|
E|-5-5------7------9--5-5------7------9--5-5------7------9--5-5--5-5--5-5--5-5--5-5--5-5--|

Este sinal(/) dentro da introdução significa slide.

Esta musica é um cover feito pelo U2 para o natal de 2009.

As partes 1,2,3 para facilitar a execução é melhor fazer como se fossem acordes pois é bem próxima a execução feita pelo THE EDGE na musica.

Parte 1
E|---------------------------------|
A|---------------------------------|
D|---------------------------------|
G|---------------------------------|
B|---12------10------8-----7-------|
E|-10--10---9--9----7-7---5-5------|


Parte 2
E|-------------------------------------|
A|-------------------------------------|
D|-------------------------------------|
G|-------------------------------------|
B|---13------13------15------15--------|
E|-12--12--12--12--14--14--14--14------|


Parte 3
E|----------------------------------------|
A|----------------------------------------|
D|----------------------------------------|
G|----------------------------------------|
B|---12-----10----8----7----8----7----7---|
E|-10--10--9--9--7-7--5-5--7-7--5-5--5-5--|






Parte 1
They said there'll be snow at Christmas
Parte 1
They said there'll be peace on Earth
Parte 1
But instead it just kept on raining
Parte 1
A veil of tears for the Virgin's birth

Parte 2
I remember one Christmas morning
Parte 2
A winters light and a distant choir

Parte 3
And the peal of a bell and that Christmas Tree smell
Parte 3
And their eyes full of tinsel and fire


SOLO MELÓDICO:


E|-------------------------------------------------------------------------------------------------|
A|-------------------------------------------------------------------------------------------------|
D|-------------------------------------------------------------------------------------------------|
G|-------------------------------------------------------9-----------------------------------------|
B|-10----------------10---7---10---10-8---------10---8-7-----10-8-10-8-7-8-10------8-7-8-10--10----|
E|----10-9-7-9-10--7----7--------7------10-9-10------------7------------------10-7--------------10-|


E|---------------|
A|---------------|
D|---------------|
G|---------------|
B|--7-7---7-7----|
E|-5-5---5-5-----|



Parte 1
They sold me a dream of Christmas
Parte 1
They sold me a Silent Night
Parte 1
And they told me a fairy story
Parte 1
'Till I believed in the Israelite

Parte 2
And I believed in Father Christmas
Parte 2
And I looked at the sky with excited eyes

Parte 3
'Till I woke with a yawn in the first light of dawn
Parte 3
And I saw him and through his disguise


SOLO MELÓDICO:

E|-------------------------------------------------------------------------------------------------|
A|-------------------------------------------------------------------------------------------------|
D|-------------------------------------------------------------------------------------------------|
G|-------------------------------------------------------9-----------------------------------------|
B|-10----------------10---7---10---10-8---------10---8-7-----10-8-10-8-7-8-10------8-7-8-10--10----|
E|----10-9-7-9-10--7----7--------7------10-9-10------------7------------------10-7--------------10-|


E|---------------|
A|---------------|
D|---------------|
G|---------------|
B|--7-7---7-7----|
E|-5-5---5-5-----|




Parte 1
I wish you a hopeful Christmas
Parte 1
I wish you a brave New Year
Parte 1
All anguish pain and sadness
Parte 1
Leave your heart and let your road be clear

Parte 2
They said there'll be snow at Christmas
Parte 2
They said there'll be peace on Earth

Parte 3
Hallelujah Noel be it Heaven or Hell
Parte 3
The Christmas you get you deserve.


SOLO MELÓDICO: 2x

E|-------------------------------------------------------------------------------------------------|
A|-------------------------------------------------------------------------------------------------|
D|-------------------------------------------------------------------------------------------------|
G|-------------------------------------------------------9-----------------------------------------|
B|-10----------------10---7---10---10-8---------10---8-7-----10-8-10-8-7-8-10------8-7-8-10--10----|
E|----10-9-7-9-10--7----7--------7------10-9-10------------7------------------10-7--------------10-|



La la la la la la la la la la....


Final D9
exibições 307
Acordes para:
    Colaboração e revisão:
    • Eduardo Santos

    0 comentários

    mostrar mais comentários

    Conseguiu tocar?

    0 tocaram 0 ainda não

    Grave um vídeo tocando I Believed In Father Christmas e mande pra gente!

    00:00 / 00:00
    outros vídeos desta música
    repetir qualidade Automático
    Outros vídeos desta música
    00:00 / 00:00
    Automático
    OK