Cifra Club

Zelda 5 Oot - New Ocarina Song

Zelda

Cifra: Principal (violão e guitarra)
Selo Cifra Club: esta cifra foi revisada para atender aos critérios oficiais da nossa Equipe de Qualidade.
tom: C
E |-----17--------------17--19----|
B |-----------------18------------|
G |-------------17----------------|
D |-------------------------------|
A |-------------------------------|
E |-------------------------------|

E |-----------19--21--------------|
B |---------20--------------------|
G |-----19------------------------|
D |-------------------------------|
A |-------------------------------|
E |-------------------------------|

Outros vídeos desta música
3.757 exibições
    • ½ Tom
    • A
    • Bb
    • B
    • C
    • Db
    • D
    • Eb
    • E
    • F
    • F#
    • G
    • Ab
  • Adicionar à lista

Afinação da cifra

Afinador online

    0 comentários

    Ver todos os comentários

    Entre para o Cifra Club PRO

    Tenha acesso a benefícios exclusivos no App e no Site

    • Chega de anúncios

    • Mais recursos no app do Afinador

    • Atendimento Prioritário

    • Aumente seu limite de lista

    • Ajude a produzir mais conteúdo

    Cifra Club Pro

    Aproveite o Cifra Club com benefícios exclusivos e sem anúncios
    Cifra Club Pro
    Aproveite o Cifra Club com benefícios exclusivos e sem anúncios
    OK